Oops, an error
Loading. Please wait.

Necropolis tab

version 1
version 1

Whole song

Interactive

26,301 views 9 this week
5 commentsread comments
1 2 3 4 5
x 7
add to favorites
×
Save as Personal and add changes to this tab that will be seen only by you. Learn more ›
×
You can save this tab as Personal to edit and correct it or add notes. All changes will be seen only by you. Learn more »
launch autoscroll
font size
0
reset
how to read this tab
guitar tuner
edit
Autoscroll
slow
fast
+/-
esc
set tempo
stop
-The Black Dahlia Murder - Necropolis
(Deflorate - Copyright: Metal Blade Records 2009)

*Note: I did not transcribe this. All comments/thank yous/etc. go to
oneandonlyone01 on Ultimate-Guitar.com.
I only took the Guitar Pro transcription and transferred it to text for those who
don't have the software.*

As it was originally Guitar Pro 5 tab file; each part is transcribed separately
and will be posted in the following order:
(To skip to a section; press Ctrl+F and enter the corresponding code in
parentheses to skip to the section)

Track 1: Brian Eschbach     (T1BE)

Track 2: Ryan Knight        (T2RK)

Track 3: Ryan Knight [Solo] (T3RK)

*Instead of editing-in 80 or so empty bars, I'm just going to label the bar the solo 
on at the beginning, and the end, on every track just to make it a little easier. It should 
be a row of stars (*).*

[Tablature Legend]

Duration Legend
---------------
W - whole
H - half
Q - quarter
E - 8th
S - 16th
T - 32nd
X - 64th
. - note dotted
|-n-|  - n-tuplets


Tablature Legend
----------------
L - tied note
x - dead note
g - grace note
(n) - ghost note
> - accentuded note
NH - natural harmonic
AH - artificial harmonic
TH - tapped harmonic
SH - semi harmonic
PH - pitch harmonic
h - hammer on
p - pull off
b - bend
br - bendRelease
pb - preBend
pbr - preBendRelease
brb - bendReleaseBend
\n/ - tremolo bar dip
\n - tremolo bar dive
-/n - tremolo bar Release up
/n\ - tremolo bar inverted dip
/n - tremolo bar return
-\n - tremolo bar Release down
S - shift slide
s - legato slide
/ -  slide into from below or out of upwards
\ -  slide into from above or out of downwards
~ - vibrato
W - wide vibrato
tr - trill
TP - tremolo picking
T - tapping
S - slap
P - pop
< - fade in
^ - brush up
v - brush down

=============================================================================
=============================================================================
=============================================================================

-T1BE


                                  Necropolis


                           The Black Dahlia Murder
Brian Eschbach

                 PM PM PM    PM                   PM       PM PM PM    PM
              E  E  E  E  E  E     E  E  E  E  E  E     E  E  E  E  E  E
C ||-------|--------------------|--------------------|--------------------|
G ||-------|--------------------|--------------------|--------------------|
D#||-------|--------------------|--------------------|--------------------|
A#||-------|--9-----------------|--9-----------------|--9-----------------|
F ||-------|--------------5-----|--------------5-----|--------------5-----|
C ||-------|-----7--6--7-----7--|-----7--6--7-----7--|-----7--6--7-----7--|


     PM PM PM    PM       PM PM PM    PM       PM PM PM    PM
  E  E  E  E  E  E     E  E  E  E  E  E     E  E  E  E  E  E
--------------------|--------------------|--------------------|
--------------------|--------------------|--------------------|
--------------------|--------------------|--------------------|
--9-----------0-----|--5-----------------|--5-----------------|
--------------------|--------------5-----|--------------5-----|
-----7--6--7-----3--|-----6--3--6-----3--|-----6--3--6-----3--|


     PM PM PM    PM       PM PM PM    PM       PM PM PM    PM
  E  E  E  E  E  E     E  E  E  E  E  E     E  E  E  E  E  E
--------------------|--------------------|--------------------|
--------------------|--------------------|--------------------|
--------------------|--------------------|--------------------|
--5-----------------|--5-----------4-----|--9-----------------|
--------------5-----|--------------------|--------------5-----|
-----6--3--6-----3--|-----6--3--6-----3--|-----7--6--7-----7--|


     PM PM PM    PM       PM PM PM    PM       PM PM PM    PM
  E  E  E  E  E  E     E  E  E  E  E  E     E  E  E  E  E  E
--------------------|--------------------|--------------------|
--------------------|--------------------|--------------------|
--------------------|--------------------|--------------------|
--9-----------------|--9-----------------|--9-----------------|
--------------5-----|--------------5-----|--------------7-----|
-----7--6--7-----7--|-----7--6--7-----7--|-----7--6--7-----7--|


     PM PM PM    PM       PM PM PM    PM       PM PM PM    PM
  E  E  E  E  E  E     E  E  E  E  E  E     E  E  E  E  E  E
--------------------|--------------------|--------------------|
--------------------|--------------------|--------------------|
--------------------|--------------------|--------------------|
--8-----------------|--8-----------------|--8-----------------|
--------------7-----|--------------7-----|--------------7-----|
-----9--6--9-----6--|-----9--6--9-----6--|-----9--6--9-----6--|


     PM PM PM    PM                           PM PM PM PM
  E  E  E  E  E  E     Q    Q    Q       Q    E  E  E  E     Q     Q     Q
------------------|-----------------|-------------------|-------------------|
------------------|-----------------|-------------------|-------------------|
------------------|-----------------|-------------------|-------------------|
8-----------------|--9--------------|-------------------|--5s----4s----5----|
------------7-----|-------5----5----|--4----4--4--4--4--|-------------------|
---9--6--9-----6--|--7----3----3----|--2----2--2--2--2--|--3s----2s----3----|


  PM   PM   PM         PM PM PM    PM       PM PM PM    PM
  Q    Q    Q       E  E  E  E  E  E     E  E  E  E  E  E
-----------------|--------------------|--------------------|
-----------------|--------------------|--------------------|
-----------------|--------------------|--------------------|
-----------------|--9-----------------|--9-----------------|
--4----4----4----|--------------5-----|--------------5-----|
--2----2----2----|-----7--6--7-----7--|-----7--6--7-----7--|


     PM PM PM    PM       PM PM PM    PM       PM PM PM    PM
  E  E  E  E  E  E     E  E  E  E  E  E     E  E  E  E  E  E
--------------------|--------------------|--------------------|
--------------------|--------------------|--------------------|
--------------------|--------------------|--------------------|
--9-----------------|--9-----------------|--8-----------------|
--------------5-----|--------------7-----|--------------7-----|
-----7--6--7-----7--|-----7--6--7-----6--|-----9--6--9-----6--|


     PM PM PM    PM       PM PM PM    PM       PM PM PM    PM
  E  E  E  E  E  E     E  E  E  E  E  E     E  E  E  E  E  E
--------------------|--------------------|--------------------|
--------------------|--------------------|--------------------|
--------------------|--------------------|--------------------|
--8-----------0-----|--5-----------------|--5-----------4-----|
--------------------|--------------5-----|--------------------|
-----9--6--9-----3--|-----6--3--6-----3--|-----6--3--6-----3--|


     PM PM PM    PM       PM PM PM    PM       PM PM PM    PM
  E  E  E  E  E  E     E  E  E  E  E  E     E  E  E  E  E  E
--------------------|--------------------|--------------------|
--------------------|--------------------|--------------------|
--------------------|--------------------|--------------------|
--9-----------------|--9-----------------|--9-----------------|
--------------5-----|--------------5-----|--------------5-----|
-----7--6--7-----7--|-----7--6--7-----7--|-----7--6--7-----7--|


     PM PM PM    PM       PM PM PM    PM       PM PM PM    PM
  E  E  E  E  E  E     E  E  E  E  E  E     E  E  E  E  E  E
--------------------|--------------------|--------------------|
--------------------|--------------------|--------------------|
--------------------|--------------------|--------------------|
--9-----------0-----|--5-----------------|--5-----------------|
--------------------|--------------5-----|--------------7-----|
-----7--6--7-----7--|-----6--3--6-----3--|-----6--3--6-----3--|


     PM PM PM    PM       PM PM PM    PM
  E  E  E  E  E  E     E  E  E  E  E  E     S S S S S S S S S S S S
--------------------|--------------------|--------------------------|
--------------------|--------------------|--------------------------|
--------------------|--------------------|--------------------------|
--8-----------------|--8-----------------|--------------------------|
--------------7-----|--------------7-----|--------------------------|
-----9--6--9-----6--|-----9--6--9-----6--|--7-7-7-7-7-7-7-7-7-7-7-7-|


   S  S  S  S  S  S  S  S  S  S  S  S    S S S S S S S S  S  S  S  S
--------------------------------------|------------------------------|
--------------------------------------|------------------------------|
--------------------------------------|------------------------------|
--------------------------------------|----------9-9-9-9-------------|
--------------------------------------|------------------10-10-10-10-|
--10-10-10-10-10-10-10-10-10-10-10-10-|--7-7-7-7---------------------|


  S S S S S S S S S S S S    S S S S S S S S S S S S
--------------------------|--------------------------|
--------------------------|--------------------------|
--------------------------|--------------------------|
--------------------------|--------------------------|
--9-9-9-9-9-9-9-9-7-7-7-7-|--------------------------|
--------------------------|--7-7-7-7-7-7-7-7-7-7-7-7-|


   S  S  S  S  S  S  S  S  S  S  S  S    S S S S S S S S S S S S
--------------------------------------|--------------------------|
--------------------------------------|--------------------------|
--------------------------------------|--------------------------|
--------------------------------------|--------------------------|
--------------------------------------|--------------------------|
--10-10-10-10-10-10-10-10-10-10-10-10-|--2-2-2-2-2-2-2-2-2-2-2-2-|


  S S S S S S S S S S S S    S S S S S S S S S S S S
--------------------------|--------------------------|
--------------------------|--------------------------|
--------------------------|--------------------------|
--------------------------|--------------------------|
--------------------------|--------------------------|
--9-9-9-9-9-9-9-9-9-9-9-9-|--7-7-7-7-7-7-7-7-7-7-7-7-|


   S  S  S  S  S  S  S  S  S  S  S  S    S S S S S S S S  S  S  S  S
--------------------------------------|------------------------------|
--------------------------------------|------------------------------|
--------------------------------------|------------------------------|
--------------------------------------|----------9-9-9-9-------------|
--------------------------------------|------------------10-10-10-10-|
--10-10-10-10-10-10-10-10-10-10-10-10-|--7-7-7-7---------------------|


  S S S S S S S S S S S S    S S S S S S S S S S S S
--------------------------|--------------------------|
--------------------------|--------------------------|
--------------------------|--------------------------|
--------------------------|--------------------------|
--9-9-9-9-9-9-9-9-7-7-7-7-|--------------------------|
--------------------------|--7-7-7-7-7-7-7-7-7-7-7-7-|


   S  S  S  S  S  S  S  S  S  S  S  S    S S S S S S S S S S S S
--------------------------------------|--------------------------|
--------------------------------------|--------------------------|
--------------------------------------|--------------------------|
--------------------------------------|--------------------------|
--------------------------------------|--------------------------|
--10-10-10-10-10-10-10-10-10-10-10-10-|--2-2-2-2-2-2-2-2-2-2-2-2-|


                                PM PM PM    PM       PM PM PM    PM
  S S S S S S S S S S S S    E  E  E  E  E  E     E  E  E  E  E  E
--------------------------|--------------------|--------------------|
--------------------------|--------------------|--------------------|
--------------------------|--------------------|--------------------|
--------------------------|--9-----------------|--9-----------------|
--------------------------|--------------5-----|--------------5-----|
--9-9-9-9-9-9-9-9-9-9-9-9-|-----7--6--7-----7--|-----7--6--7-----7--|


     PM PM PM    PM       PM PM PM    PM       PM PM PM    PM
  E  E  E  E  E  E     E  E  E  E  E  E     E  E  E  E  E  E
--------------------|--------------------|--------------------|
--------------------|--------------------|--------------------|
--------------------|--------------------|--------------------|
--9-----------------|--9-----------------|--8-----------------|
--------------5-----|--------------7-----|--------------7-----|
-----7--6--7-----7--|-----7--6--7-----7--|-----9--6--9-----6--|


     PM PM PM    PM       PM PM PM    PM       PM PM PM    PM
  E  E  E  E  E  E     E  E  E  E  E  E     E  E  E  E  E  E
--------------------|--------------------|--------------------|
--------------------|--------------------|--------------------|
--------------------|--------------------|--------------------|
--8-----------0-----|--5-----------------|--5-----------4-----|
--------------------|--------------5-----|--------------------|
-----9--6--9-----6--|-----6--3--6-----3--|-----6--3--6-----7--|


     PM PM PM    PM       PM PM PM    PM       PM PM PM    PM
  E  E  E  E  E  E     E  E  E  E  E  E     E  E  E  E  E  E
--------------------|--------------------|--------------------|
--------------------|--------------------|--------------------|
--------------------|--------------------|--------------------|
--9-----------------|--9-----------------|--9-----------------|
--------------5-----|--------------5-----|--------------5-----|
-----7--6--7-----7--|-----7--6--7-----7--|-----7--6--7-----7--|


     PM PM PM    PM       PM PM PM    PM       PM PM PM    PM
  E  E  E  E  E  E     E  E  E  E  E  E     E  E  E  E  E  E
--------------------|--------------------|--------------------|
--------------------|--------------------|--------------------|
--------------------|--------------------|--------------------|
--9-----------0-----|--5-----------------|--5-----------------|
--------------------|--------------5-----|--------------7-----|
-----7--6--7-----3--|-----6--3--6-----3--|-----6--3--6-----6--|


     PM PM PM    PM    PM PM PM PM PM PM PM PM PM       PM PM   PM
  E  E  E  E  E  E     S  S  E  S  S  E  S  S  E     E  E  Q    Q
--------------------|-----------------------------|------------------|
--------------------|-----------------------------|------------------|
--------------------|-----------------------------|------------------|
--8-----------------|-----------------------------|--5---------------|
--------------7-----|--4--4--4--4--4--4--4--4--4--|-----2--2----2----|
-----9--6--9-----6--|--2--2--2--2--2--2--2--2--2--|-----0--0----0----|


  PM   PM                 PM   PM           PM   PM         PM PM   PM
  Q    Q    E  E     Q    Q    Q       Q    Q    Q       E  E  Q    Q
------------------|-----------------|-----------------|------------------|
------------------|-----------------|-----------------|------------------|
------------------|-----------------|-----------------|------------------|
------------4--2--|--4--------------|-----------------|--5---------------|
--2----2----------|-------4----4----|--4----4----4----|-----2--2----2----|
--0----0----------|-------2----2----|-------2----2----|-----0--0----0----|


  PM   PM                                  PM PM PM PM PM       PM PM   PM
  Q    Q    E  E     Q.     Q.        Q    S  S  E  E  E     E  E  Q    Q
-----------------|----------------|----------------------|------------------|
-----------------|----------------|----------------------|------------------|
-----------------|----------------|----------------------|------------------|
-----------4--2--|----------------|----------------------|--5---------------|
-2----2----------|--1------4------|--4----4--4--4--4--4--|-----2--2----2----|
-0----0----------|----------------|--2----2--2--2--2--2--|-----0--0----0----|


  PM   PM   PM PM       PM PM PM PM PM                        PM PM   PM
  Q    Q    E  E     E  E  E  E  E  E     H.               E  E  Q    Q
------------------|--------------------|----------------|------------------|
------------------|--------------------|----------------|------------------|
------------------|--3-----------------|----------------|------------------|
------------4--2--|-----5--4--2-----2--|----------------|--5---------------|
--2----2----------|--------------5-----|--4~------------|-----2--2----2----|
--0----0----------|--------------------|----------------|-----0--0----0----|


  PM   PM            tr                 tr
  Q    Q    E  E     H.                 H.
------------------|------------------|------------------|
------------------|------------------|------------------|
------------------|------------------|------------------|
------------4--2--|------------------|------------------|
--2----2----------|--1(2)------------|--4(5)------------|
--0----0----------|------------------|------------------|


  S S S S S S S S S S S S     S  S  S  S  S  S  S  S  S  S  S  S
--------------------------|--------------------------------------|
--------------------------|--------------------------------------|
--------------------------|--------------------------------------|
--------------------------|--------------------------------------|
--------------------------|--------------------------------------|
--7-7-7-7-7-7-7-7-7-7-7-7-|--10-10-10-10-10-10-10-10-10-10-10-10-|


  S S S S S S S S  S  S  S  S    S S S S S S S S S S S S
------------------------------|--------------------------|
------------------------------|--------------------------|
------------------------------|--------------------------|
----------9-9-9-9-------------|--------------------------|
------------------10-10-10-10-|--9-9-9-9-9-9-9-9-7-7-7-7-|
--7-7-7-7---------------------|--------------------------|


  S S S S S S S S S S S S     S  S  S  S  S  S  S  S  S  S  S  S
--------------------------|--------------------------------------|
--------------------------|--------------------------------------|
--------------------------|--------------------------------------|
--------------------------|--------------------------------------|
--------------------------|--------------------------------------|
--7-7-7-7-7-7-7-7-7-7-7-7-|--10-10-10-10-10-10-10-10-10-10-10-10-|


  S S S S S S S S S S S S    S S S S S S S S S S S S
--------------------------|--------------------------|
--------------------------|--------------------------|
--------------------------|--------------------------|
--------------------------|--------------------------|
--------------------------|--------------------------|
--2-2-2-2-2-2-2-2-2-2-2-2-|--9-9-9-9-9-9-9-9-9-9-9-9-|


  S S S S S S S S S S S S     S  S  S  S  S  S  S  S  S  S  S  S
--------------------------|--------------------------------------|
--------------------------|--------------------------------------|
--------------------------|--------------------------------------|
--------------------------|--------------------------------------|
--------------------------|--------------------------------------|
--7-7-7-7-7-7-7-7-7-7-7-7-|--10-10-10-10-10-10-10-10-10-10-10-10-|


  S S S S S S S S  S  S  S  S    S S S S S S S S S S S S
------------------------------|--------------------------|
------------------------------|--------------------------|
------------------------------|--------------------------|
----------9-9-9-9-------------|--------------------------|
------------------10-10-10-10-|--9-9-9-9-9-9-9-9-7-7-7-7-|
--7-7-7-7---------------------|--------------------------|


  S S S S S S S S S S S S     S  S  S  S  S  S  S  S  S  S  S  S
--------------------------|--------------------------------------|
--------------------------|--------------------------------------|
--------------------------|--------------------------------------|
--------------------------|--------------------------------------|
--------------------------|--------------------------------------|
--7-7-7-7-7-7-7-7-7-7-7-7-|--10-10-10-10-10-10-10-10-10-10-10-10-|

*************************Start Solo - (T3RK)********************************

                                                        PM PM PM PM    PM
  S S S S S S S S S S S S    S S S S S S S S S S S S    E  E  E  E  E  E
--------------------------|--------------------------|--------------------|
--------------------------|--------------------------|--------------------|
--------------------------|--------------------------|--------------------|
--------------------------|--------------------------|--------------------|
--------------------------|--------------------------|--------------5-----|
--2-2-2-2-2-2-2-2-2-2-2-2-|--9-9-9-9-9-9-9-9-9-9-9-9-|--7--6--3--6-----3--|


     PM PM PM    PM       PM PM PM    PM       PM PM PM    PM
  E  E  E  E  E  E     E  E  E  E  E  E     E  E  E  E  E  E
--------------------|--------------------|--------------------|
--------------------|--------------------|--------------------|
--------------------|--------------------|--------------------|
--5-----------------|--5-----------------|--5-----------------|
--------------5-----|--------------5-----|--------------9-----|
-----6--3--6-----3--|-----6--3--6-----3--|-----6--3--6-----7--|


     PM PM PM    PM       PM PM PM    PM       PM PM PM    PM
  E  E  E  E  E  E     E  E  E  E  E  E     E  E  E  E  E  E
--------------------|--------------------|--------------------|
--------------------|--------------------|--------------------|
--------------------|--------------------|--------------------|
--9-----------------|--9-----------------|--9-----------------|
--------------9-----|--------------9-----|--------------9-----|
-----9--7--9-----7--|-----9--7--9-----7--|-----9--7--9-----7--|


     PM PM PM    PM       PM PM PM    PM       PM PM PM    PM
  E  E  E  E  E  E     E  E  E  E  E  E     E  E  E  E  E  E
--------------------|--------------------|--------------------|
--------------------|--------------------|--------------------|
--------------------|--------------------|--------------------|
--9-----------------|--5-----------------|--5-----------------|
--------------5-----|--------------5-----|--------------5-----|
-----9--7--9-----3--|-----6--3--6-----3--|-----6--3--6-----3--|


     PM PM PM    PM       PM PM PM    PM       PM PM PM    PM
  E  E  E  E  E  E     E  E  E  E  E  E     E  E  E  E  E  E
--------------------|--------------------|--------------------|
--------------------|--------------------|--------------------|
--------------------|--------------------|--------------------|
--5-----------------|--5-----------------|--9-----------------|
--------------5-----|--------------9-----|--------------9-----|
-----6--3--6-----3--|-----6--3--6-----7--|-----9--7--9-----7--|


     PM PM PM    PM       PM PM PM    PM       PM PM PM    PM
  E  E  E  E  E  E     E  E  E  E  E  E     E  E  E  E  E  E
--------------------|--------------------|--------------------|
--------------------|--------------------|--------------------|
--------------------|--------------------|--------------------|
--9-----------------|--9-----------------|--9-----------------|
--------------9-----|--------------9-----|--------------9-----|
-----9--7--9-----7--|-----9--7--9-----7--|-----9--7--9-----7--|


  PM PM PM    PM    PM          PM PM PM PM PM PM    PM PM PM    PM    PM
  S  S  E  E  E  E  E     E  E  S  S  E  S  S  E     S  S  E  E  E  E  E
-----------------------|--------------------------|-----------------------|
-----------------------|--------------------------|-----------------------|
-----------------------|--------------------------|-----------------------|
-----------------5-----|--------------------------|-----------------5-----|
-----------7-----------|--4-----------------------|-----------7-----------|
--3--3--3-----3-----3--|-----3--3--3--3--2--2--2--|--3--3--3-----3-----3--|


        PM PM PM PM PM PM    PM PM PM    PM    PM          PM PM PM PM PM PM
  E  E  S  S  E  S  S  E     S  S  E  E  E  E  E     E  E  S  S  E  S  S  E
-------------------------|-----------------------|--------------------------|
-------------------------|-----------------------|--------------------------|
-------------------------|-----------------------|--------------------------|
-------------------------|-----------------4-----|--------------------------|
-4-----------------------|-----------4-----------|--2-----------------------|
----3--3--3--3--0--0--0--|--2--2--2-----2-----2--|-----2--2--2--2--0--0--0--|


  PM PM PM    PM    PM          PM PM PM PM PM PM    PM PM PM    PM    PM
  S  S  E  E  E  E  E     E  E  S  S  E  S  S  E     S  S  E  E  E  E  E
-----------------------|--------------------------|-----------------------|
-----------------------|--------------------------|-----------------------|
-----------------------|--------------------------|-----------------------|
-----------------4-----|--------------------------|-----------------5-----|
-----------4-----------|--2-----------------------|-----------7-----------|
--2--2--2-----2-----2--|-----2--2--2--2--0--0--0--|--3--3--3-----3-----3--|


        PM PM PM PM PM PM    PM PM PM    PM    PM          PM PM PM PM PM PM
  E  E  S  S  E  S  S  E     S  S  E  E  E  E  E     E  E  S  S  E  S  S  E
-------------------------|-----------------------|--------------------------|
-------------------------|-----------------------|--------------------------|
-------------------------|-----------------------|--------------------------|
-------------------------|-----------------5-----|--------------------------|
-4-----------------------|-----------7-----------|--4-----------------------|
----3--3--3--3--2--2--2--|--3--3--3-----3-----3--|-----3--3--3--3--0--0--0--|


  PM PM PM    PM    PM          PM PM PM PM PM PM    PM PM PM    PM    PM
  S  S  E  E  E  E  E     E  E  S  S  E  S  S  E     S  S  E  E  E  E  E
-----------------------|--------------------------|-----------------------|
-----------------------|--------------------------|-----------------------|
-----------------------|--------------------------|-----------------------|
-----------------4-----|--------------------------|-----------------4-----|
-----------4-----------|--2-----------------------|-----------4-----------|
--2--2--2-----2-----2--|-----2--2--2--2--0--0--0--|--2--2--2-----2-----2--|

**************End Solo - [(T3RK) Last Note Holds Next 3 Bars]***************

        PM PM PM PM PM PM
  E  E  S  S  E  S  S  E     S S S S S S S S S S S S
--------------------------|--------------------------|
--------------------------|--------------------------|
--------------------------|--------------------------|
--------------------------|--------------------------|
--2-----------------------|--7-7-7-7-7-7-7-7-7-7-7-7-|
-----2--2--2--2--0--0--0--|--------------------------|


  S S S S S S S S S S S S    S S S S S S S S S S S S
--------------------------|--------------------------|
--------------------------|--------------------------|
--------------------------|--------------------------|
--------------------------|--------------------------|
--7-7-7-7-7-7-7-7-7-7-7-7-|--------------------------|
--------------------------|--9-9-9-9-9-9-9-9-9-9-9-9-|


  S S S S S S S S S S S S     S  S  S  S  S  S  S  S  S  S  S  S
--------------------------|--------------------------------------|
--------------------------|--------------------------------------|
--------------------------|--------------------------------------|
--------------------------|--------------------------------------|
--------------------------|--------------------------------------|
--9-9-9-9-9-9-9-9-9-9-9-9-|--10-10-10-10-10-10-10-10-10-10-10-10-|


   S  S  S  S  S  S  S  S  S  S  S  S    S S S S S S S S S S S S
--------------------------------------|--------------------------|
--------------------------------------|--------------------------|
--------------------------------------|--------------------------|
--------------------------------------|--------------------------|
--------------------------------------|--------------------------|
--10-10-10-10-10-10-10-10-10-10-10-10-|--9-9-9-9-9-9-9-9-9-9-9-9-|


  S S S S S S S S S S S S    S S S S S S S S S S S S
--------------------------|--------------------------|
--------------------------|--------------------------|
--------------------------|--------------------------|
--------------------------|--------------------------|
--------------------------|--7-7-7-7-7-7-7-7-7-7-7-7-|
--7-7-7-7-7-7-7-7-7-7-7-7-|--------------------------|


  S S S S S S S S S S S S    S S S S S S S S S S S S
--------------------------|--------------------------|
--------------------------|--------------------------|
--------------------------|--------------------------|
--------------------------|--------------------------|
--7-7-7-7-7-7-7-7-7-7-7-7-|--------------------------|
--------------------------|--9-9-9-9-9-9-9-9-9-9-9-9-|


  S S S S S S S S S S S S     S  S  S  S  S  S  S  S  S  S  S  S
--------------------------|--------------------------------------|
--------------------------|--------------------------------------|
--------------------------|--------------------------------------|
--------------------------|--------------------------------------|
--------------------------|--------------------------------------|
--9-9-9-9-9-9-9-9-9-9-9-9-|--10-10-10-10-10-10-10-10-10-10-10-10-|


   S  S  S  S  S  S  S  S  S  S  S  S    S S S S S S S S S S S S
--------------------------------------|--------------------------|
--------------------------------------|--------------------------|
--------------------------------------|--------------------------|
--------------------------------------|--------------------------|
--------------------------------------|--------------------------|
--10-10-10-10-10-10-10-10-10-10-10-10-|--9-9-9-9-9-9-9-9-9-9-9-9-|


  S S S S S S S S S S S S    S S S S S S S S S S S S
--------------------------|--------------------------|
--------------------------|--------------------------|
--------------------------|--------------------------|
--------------------------|--------------------------|
--------------------------|--7-7-7-7-7-7-7-7-7-7-7-7-|
--7-7-7-7-7-7-7-7-7-7-7-7-|--------------------------|


  S S S S S S S S S S S S    S S S S S S S S S S S S
--------------------------|--------------------------|
--------------------------|--------------------------|
--------------------------|--------------------------|
--------------------------|--------------------------|
--7-7-7-7-7-7-7-7-7-7-7-7-|--------------------------|
--------------------------|--9-9-9-9-9-9-9-9-9-9-9-9-|


  S S S S S S S S S S S S     S  S  S  S  S  S  S  S  S  S  S  S
--------------------------|--------------------------------------|
--------------------------|--------------------------------------|
--------------------------|--------------------------------------|
--------------------------|--------------------------------------|
--------------------------|--------------------------------------|
--9-9-9-9-9-9-9-9-9-9-9-9-|--10-10-10-10-10-10-10-10-10-10-10-10-|


   S  S  S  S  S  S  S  S  S  S  S  S    S S S S S S S S S S S S
--------------------------------------|--------------------------|
--------------------------------------|--------------------------|
--------------------------------------|--------------------------|
--------------------------------------|--------------------------|
--------------------------------------|--------------------------|
--10-10-10-10-10-10-10-10-10-10-10-10-|--9-9-9-9-9-9-9-9-9-9-9-9-|


  S S S S S S S S S S S S    S S S S S S S S S S S S
--------------------------|--------------------------|
--------------------------|--------------------------|
--------------------------|--------------------------|
--------------------------|--------------------------|
--------------------------|--7-7-7-7-7-7-7-7-7-7-7-7-|
--7-7-7-7-7-7-7-7-7-7-7-7-|--------------------------|


  S S S S S S S S S S S S    S S S S S S S S S S S S
--------------------------|--------------------------|
--------------------------|--------------------------|
--------------------------|--------------------------|
--------------------------|--------------------------|
--7-7-7-7-7-7-7-7-7-7-7-7-|--------------------------|
--------------------------|--9-9-9-9-9-9-9-9-9-9-9-9-|


  S S S S S S S S S S S S     S  S  S  S  S  S  S  S  S  S  S  S
--------------------------|--------------------------------------|
--------------------------|--------------------------------------|
--------------------------|--------------------------------------|
--------------------------|--------------------------------------|
--------------------------|--------------------------------------|
--9-9-9-9-9-9-9-9-9-9-9-9-|--10-10-10-10-10-10-10-10-10-10-10-10-|


   S  S  S  S  S  S  S  S  S  S  S  S    S S S S S S S S S S S S
--------------------------------------|--------------------------|
--------------------------------------|--------------------------|
--------------------------------------|--------------------------|
--------------------------------------|--------------------------|
--------------------------------------|--------------------------|
--10-10-10-10-10-10-10-10-10-10-10-10-|--9-9-9-9-9-9-9-9-9-9-9-9-|


                                PM PM PM    PM       PM PM PM    PM
  S S S S S S S S S S S S    E  E  E  E  E  E     E  E  E  E  E  E
--------------------------|--------------------|--------------------|
--------------------------|--------------------|--------------------|
--------------------------|--------------------|--------------------|
--------------------------|--2-----------------|--2-----------------|
--------------------------|--------------2-----|--------------4-----|
--7-7-7-7-7-7-7-7-7-7-7-7-|-----3--0--3-----0--|-----3--0--3-----2--|


     PM PM PM    PM       PM PM PM    PM       PM PM PM    PM
  E  E  E  E  E  E     E  E  E  E  E  E     E  E  E  E  E  E
--------------------|--------------------|--------------------|
--------------------|--------------------|--------------------|
--------------------|--------------------|--------------------|
--4-----------------|--4-----------4-----|--9-----------------|
--------------4-----|--------------------|--------------5-----|
-----6--2--6-----2--|-----6--2--6-----2--|-----7--6--7-----7--|


     PM PM PM    PM        PM PM PM    PM        PM PM PM    PM
  E  E  E  E  E  E      E  E  E  E  E  E      E  E  E  E  E  E
--------------------|---------------------|---------------------|
--------------------|---------------------|---------------------|
--------------------|---------------------|---------------------|
--9-----------------|--11-----------------|--11-----------------|
--------------7-----|---------------7-----|---------------2-----|
-----7--6--7-----7--|------9--7--9-----7--|------9--7--9-----0--|


     PM PM PM    PM       PM PM PM    PM       PM PM PM    PM
  E  E  E  E  E  E     E  E  E  E  E  E     E  E  E  E  E  E
--------------------|--------------------|--------------------|
--------------------|--------------------|--------------------|
--------------------|--------------------|--------------------|
--2-----------------|--2-----------------|--4-----------------|
--------------2-----|--------------4-----|--------------4-----|
-----3--0--3-----0--|-----3--0--3-----2--|-----6--2--6-----2--|


     PM PM PM    PM       PM PM PM    PM       PM PM PM    PM
  E  E  E  E  E  E     E  E  E  E  E  E     E  E  E  E  E  E
--------------------|--------------------|--------------------|
--------------------|--------------------|--------------------|
--------------------|--------------------|--------------------|
--4-----------4-----|--9-----------------|--9-----------------|
--------------------|--------------5-----|--------------7-----|
-----6--2--6-----2--|-----7--6--7-----7--|-----7--6--7-----7--|


      PM PM PM    PM        PM PM PM    PM       PM PM PM    PM
   E  E  E  E  E  E      E  E  E  E  E  E     E  E  E  E  E  E
---------------------|---------------------|--------------------|
---------------------|---------------------|--------------------|
---------------------|---------------------|--------------------|
--11-----------------|--11-----------------|--2-----------------|
---------------7-----|---------------2-----|--------------2-----|
------9--7--9-----7--|------9--7--9-----0--|-----3--0--3-----0--|


     PM PM PM    PM       PM PM PM    PM       PM PM PM    PM
  E  E  E  E  E  E     E  E  E  E  E  E     E  E  E  E  E  E
--------------------|--------------------|--------------------|
--------------------|--------------------|--------------------|
--------------------|--------------------|--------------------|
--2-----------------|--4-----------------|--4-----------4-----|
--------------4-----|--------------4-----|--------------------|
-----3--0--3-----2--|-----6--2--6-----2--|-----6--2--6-----2--|


     PM PM PM    PM       PM PM PM    PM        PM PM PM    PM
  E  E  E  E  E  E     E  E  E  E  E  E      E  E  E  E  E  E
--------------------|--------------------|---------------------|
--------------------|--------------------|---------------------|
--------------------|--------------------|---------------------|
--9-----------------|--9-----------------|--11-----------------|
--------------5-----|--------------7-----|---------------7-----|
-----7--6--7-----7--|-----7--6--7-----7--|------9--7--9-----7--|


      PM PM PM    PM       PM PM PM    PM       PM PM PM    PM
   E  E  E  E  E  E     E  E  E  E  E  E     E  E  E  E  E  E
---------------------|--------------------|--------------------|
---------------------|--------------------|--------------------|
---------------------|--------------------|--------------------|
--11-----------------|--2-----------------|--2-----------------|
---------------2-----|--------------2-----|--------------4-----|
------9--7--9-----0--|-----3--0--3-----0--|-----3--0--3-----2--|


     PM PM PM    PM       PM PM PM    PM       PM PM PM    PM
  E  E  E  E  E  E     E  E  E  E  E  E     E  E  E  E  E  E
--------------------|--------------------|--------------------|
--------------------|--------------------|--------------------|
--------------------|--------------------|--------------------|
--4-----------------|--4-----------4-----|--9-----------------|
--------------4-----|--------------------|--------------5-----|
-----6--2--6-----2--|-----6--2--6-----2--|-----7--6--7-----7--|


     PM PM PM    PM        PM PM PM    PM    PM PM PM PM PM PM PM PM PM
  E  E  E  E  E  E      E  E  E  E  E  E     S  S  E  S  S  E  S  S  E
--------------------|---------------------|-----------------------------|
--------------------|---------------------|-----------------------------|
--------------------|---------------------|-----------------------------|
--9-----------------|--11-----------------|-----------------------------|
--------------7-----|---------------7-----|--4--4--4--4--4--4--4--4--4--|
-----7--6--7-----7--|------9--7--9-----7--|--2--2--2--2--2--2--2--2--2--|


     PM PM   PM      PM   PM                 PM   PM           PM   PM
  E  E  Q    Q       Q    Q    E  E     Q    Q    Q       Q    Q    Q
------------------|------------------|-----------------|-----------------|
------------------|------------------|-----------------|-----------------|
------------------|------------------|-----------------|-----------------|
--5---------------|------------4--2--|--4--------------|-----------------|
-----2--2----2----|--2----2----------|-------4----4----|--4----4----4----|
-----0--0----0----|--0----0----------|-------2----2----|-------2----2----|


     PM PM   PM      PM   PM                                  PM PM PM PM PM
  E  E  Q    Q       Q    Q    E  E     Q.     Q.        Q    S  S  E  E  E
-----------------|------------------|----------------|----------------------|
-----------------|------------------|----------------|----------------------|
-----------------|------------------|----------------|----------------------|
-5---------------|------------4--2--|----------------|----------------------|
----2--2----2----|--2----2----------|--1------4------|--4----4--4--4--4--4--|
----0--0----0----|--0----0----------|----------------|--2----2--2--2--2--2--|


     PM PM   PM      PM   PM   PM PM       PM PM PM PM PM
  E  E  Q    Q       Q    Q    E  E     E  E  E  E  E  E     H.
------------------|------------------|--------------------|----------------|
------------------|------------------|--------------------|----------------|
------------------|------------------|--3-----------------|----------------|
--5---------------|------------4--2--|-----5--4--2-----2--|----------------|
-----2--2----2----|--2----2----------|--------------5-----|--4~------------|
-----0--0----0----|--0----0----------|--------------------|----------------|


     PM PM   PM      PM   PM            tr                 tr
  E  E  Q    Q       Q    Q    E  E     H.                 H.
------------------|------------------|------------------|-------------------|
------------------|------------------|------------------|-------------------|
------------------|------------------|------------------|-------------------|
--5---------------|------------4--2--|------------------|-------------------|
-----2--2----2----|--2----2----------|------------------|-------------------|
-----0--0----0----|--0----0----------|--6(7)------------|--9(10)------------|


  S S S S S S S S S S S S     S  S  S  S  S  S  S  S  S  S  S  S
--------------------------|--------------------------------------|
--------------------------|--------------------------------------|
--------------------------|--------------------------------------|
--------------------------|--------------------------------------|
--------------------------|--------------------------------------|
--7-7-7-7-7-7-7-7-7-7-7-7-|--10-10-10-10-10-10-10-10-10-10-10-10-|


  S S S S S S S S  S  S  S  S    S S S S S S S S S S S S
------------------------------|--------------------------|
------------------------------|--------------------------|
------------------------------|--------------------------|
----------9-9-9-9-------------|--------------------------|
------------------10-10-10-10-|--9-9-9-9-9-9-9-9-7-7-7-7-|
--7-7-7-7---------------------|--------------------------|


  S S S S S S S S S S S S     S  S  S  S  S  S  S  S  S  S  S  S
--------------------------|--------------------------------------|
--------------------------|--------------------------------------|
--------------------------|--------------------------------------|
--------------------------|--------------------------------------|
--------------------------|--------------------------------------|
--7-7-7-7-7-7-7-7-7-7-7-7-|--10-10-10-10-10-10-10-10-10-10-10-10-|


  S S S S S S S S S S S S    S S S S S S S S S S S S
--------------------------|--------------------------|
--------------------------|--------------------------|
--------------------------|--------------------------|
--------------------------|--------------------------|
--------------------------|--------------------------|
--2-2-2-2-2-2-2-2-2-2-2-2-|--9-9-9-9-9-9-9-9-9-9-9-9-|


  S S S S S S S S S S S S     S  S  S  S  S  S  S  S  S  S  S  S
--------------------------|--------------------------------------|
--------------------------|--------------------------------------|
--------------------------|--------------------------------------|
--------------------------|--------------------------------------|
--------------------------|--------------------------------------|
--7-7-7-7-7-7-7-7-7-7-7-7-|--10-10-10-10-10-10-10-10-10-10-10-10-|


  S S S S S S S S  S  S  S  S    S S S S S S S S S S S S
------------------------------|--------------------------|
------------------------------|--------------------------|
------------------------------|--------------------------|
----------9-9-9-9-------------|--------------------------|
------------------10-10-10-10-|--9-9-9-9-9-9-9-9-7-7-7-7-|
--7-7-7-7---------------------|--------------------------|


  S S S S S S S S S S S S     S  S  S  S  S  S  S  S  S  S  S  S
--------------------------|--------------------------------------|
--------------------------|--------------------------------------|
--------------------------|--------------------------------------|
--------------------------|--------------------------------------|
--------------------------|--------------------------------------|
--7-7-7-7-7-7-7-7-7-7-7-7-|--10-10-10-10-10-10-10-10-10-10-10-10-|


  S S S S S S S S S S S S    S S S S S S S S S S S S
--------------------------|--------------------------|
--------------------------|--------------------------|
--------------------------|--------------------------|
--------------------------|--------------------------|
--------------------------|--------------------------|
--2-2-2-2-2-2-2-2-2-2-2-2-|--9-9-9-9-9-9-9-9-9-9-9-9-|


  S S S S S S S S S S S S     S  S  S  S  S  S  S  S  S  S  S  S
--------------------------|--------------------------------------|
--------------------------|--------------------------------------|
--------------------------|--------------------------------------|
--------------------------|--------------------------------------|
--------------------------|--------------------------------------|
--7-7-7-7-7-7-7-7-7-7-7-7-|--10-10-10-10-10-10-10-10-10-10-10-10-|


  S S S S S S S S  S  S  S  S    S S S S S S S S S S S S
------------------------------|--------------------------|
------------------------------|--------------------------|
------------------------------|--------------------------|
----------9-9-9-9-------------|--------------------------|
------------------10-10-10-10-|--9-9-9-9-9-9-9-9-7-7-7-7-|
--7-7-7-7---------------------|--------------------------|


  S S S S S S S S S S S S     S  S  S  S  S  S  S  S  S  S  S  S
--------------------------|--------------------------------------|
--------------------------|--------------------------------------|
--------------------------|--------------------------------------|
--------------------------|--------------------------------------|
--------------------------|--------------------------------------|
--7-7-7-7-7-7-7-7-7-7-7-7-|--10-10-10-10-10-10-10-10-10-10-10-10-|


  S S S S S S S S S S S S    S S S S S S S S S S S S
--------------------------|--------------------------|
--------------------------|--------------------------|
--------------------------|--------------------------|
--------------------------|--------------------------|
--------------------------|--------------------------|
--2-2-2-2-2-2-2-2-2-2-2-2-|--9-9-9-9-9-9-9-9-9-9-9-9-|


  S S S S S S S S S S S S     S  S  S  S  S  S  S  S  S  S  S  S
--------------------------|--------------------------------------|
--------------------------|--------------------------------------|
--------------------------|--------------------------------------|
--------------------------|--------------------------------------|
--------------------------|--------------------------------------|
--7-7-7-7-7-7-7-7-7-7-7-7-|--10-10-10-10-10-10-10-10-10-10-10-10-|


  S S S S S S S S  S  S  S  S    S S S S S S S S S S S S
------------------------------|--------------------------|
------------------------------|--------------------------|
------------------------------|--------------------------|
----------9-9-9-9-------------|--------------------------|
------------------10-10-10-10-|--9-9-9-9-9-9-9-9-7-7-7-7-|
--7-7-7-7---------------------|--------------------------|


  S S S S S S S S S S S S     S  S  S  S  S  S  S  S  S  S  S  S
--------------------------|--------------------------------------|
--------------------------|--------------------------------------|
--------------------------|--------------------------------------|
--------------------------|--------------------------------------|
--------------------------|--------------------------------------|
--7-7-7-7-7-7-7-7-7-7-7-7-|--10-10-10-10-10-10-10-10-10-10-10-10-|


  S S S S S S S S S S S S    S S S S S S S S S S S S    Q    Q    Q
--------------------------|--------------------------|-----------------|
--------------------------|--------------------------|-----------------|
--------------------------|--------------------------|-----------------|
--------------------------|--------------------------|--9--------------|
--------------------------|--------------------------|-------5----5----|
--2-2-2-2-2-2-2-2-2-2-2-2-|--9-9-9-9-9-9-9-9-9-9-9-9-|--7----3----3----|


       PM PM PM PM                        PM   PM   PM
  Q    E  E  E  E     Q     Q     Q       Q    Q    Q       Q    H
-------------------|-------------------|-----------------|----------------||
-------------------|-------------------|-----------------|----------------||
-------------------|-------------------|-----------------|----------------||
-------------------|--5s----4-----5----|-----------------|--9-------------||
--4----4--4--4--4--|-------------------|--5----4----5----|--9-------------||
--2----2--2--2--2--|--3s----2s----3----|--3----2----3----|--7-------------||




=============================================================================
=============================================================================
=============================================================================




-T2RK

                                  Necropolis


                            The Black Dahlia Murder
Ryan Knight

                                                              PM PM PM    PM
              E  E  E  E  E  E                             E  E  E  E  E  E
C ||-------|--------------------|-------|-------|-------|--------------------|
G ||-------|--------------------|-------|-------|-------|--------------------|
D#||-------|--------------------|-------|-------|-------|--------------------|
A#||-------|--9-----------------|-------|-------|-------|--5-----------------|
F ||-------|--9-----------------|-------|-------|-------|--------------5-----|
C ||-------|--7-----------------|-------|-------|-------|-----6--3--6-----3--|


     PM PM PM    PM       PM PM PM    PM       PM PM PM    PM
  E  E  E  E  E  E     E  E  E  E  E  E     E  E  E  E  E  E
--------------------|--------------------|--------------------|
--------------------|--------------------|--------------------|
--------------------|--------------------|--------------------|
--5-----------------|--5-----------------|--5-----------4-----|
--------------5-----|--------------5-----|--------------------|
-----6--3--6-----3--|-----6--3--6-----3--|-----6--3--6-----3--|


     PM PM PM    PM       PM PM PM    PM       PM PM PM    PM
  E  E  E  E  E  E     E  E  E  E  E  E     E  E  E  E  E  E
--------------------|--------------------|--------------------|
--------------------|--------------------|--------------------|
--------------------|--------------------|--------------------|
--9-----------------|--9-----------------|--9-----------------|
--------------5-----|--------------5-----|--------------5-----|
-----7--6--7-----7--|-----7--6--7-----7--|-----7--6--7-----7--|


     PM PM PM    PM       PM PM PM    PM       PM PM PM    PM
  E  E  E  E  E  E     E  E  E  E  E  E     E  E  E  E  E  E
--------------------|--------------------|--------------------|
--------------------|--------------------|--------------------|
--------------------|--------------------|--------------------|
--9-----------------|--4-----------------|--4-----------------|
--------------4-----|--------------4-----|--------------4-----|
-----7--6--7-----2--|-----6--2--6-----2--|-----6--2--6-----2--|


     PM PM PM    PM       PM PM PM    PM                           PM PM PM PM
  E  E  E  E  E  E     E  E  E  E  E  E     Q    Q    Q       Q    E  E  E  E
-----------------|--------------------|-----------------|-------------------|
-----------------|--------------------|-----------------|-------------------|
-----------------|--------------------|-----------------|-------------------|
4----------------|--4-----------------|--5--------------|-------------------|
-----------4-----|--------------4-----|--5----5----5----|--4----4--4--4--4--|
--6--2--6-----2--|-----6--2--6-----2--|--3----3----3----|--2----2--2--2--2--|


                      PM   PM   PM         PM PM PM    PM       PM PM PM    PM
  Q     Q     Q       Q    Q    Q       E  E  E  E  E  E     E  E  E  E  E  E
----------------|-----------------|--------------------|--------------------|
----------------|-----------------|--------------------|--------------------|
----------------|-----------------|--------------------|--------------------|
9s---8s----9----|-----------------|--9-----------------|--9-----------------|
----------------|--4----4----4----|--------------5-----|--------------5-----|
8s---6s----7----|--2----2----2----|-----7--6--7-----7--|-----7--6--7-----7--|


     PM PM PM    PM       PM PM PM    PM       PM PM PM    PM
  E  E  E  E  E  E     E  E  E  E  E  E     E  E  E  E  E  E
--------------------|--------------------|--------------------|
--------------------|--------------------|--------------------|
--------------------|--------------------|--------------------|
--9-----------------|--9-----------------|--8-----------------|
--------------5-----|--------------7-----|--------------7-----|
-----7--6--7-----7--|-----7--6--7-----6--|-----9--6--9-----6--|


     PM PM PM    PM       PM PM PM    PM       PM PM PM    PM
  E  E  E  E  E  E     E  E  E  E  E  E     E  E  E  E  E  E
--------------------|--------------------|--------------------|
--------------------|--------------------|--------------------|
--------------------|--------------------|--------------------|
--8-----------------|--9-----------------|--9-----------------|
--------------9-----|--------------9-----|--------------5-----|
-----9--6--9-----7--|-----9--7--9-----7--|-----9--7--9-----7--|


     PM PM PM    PM       PM PM PM    PM       PM PM PM    PM
  E  E  E  E  E  E     E  E  E  E  E  E     E  E  E  E  E  E
--------------------|--------------------|--------------------|
--------------------|--------------------|--------------------|
--------------------|--------------------|--------------------|
--9-----------------|--9-----------------|--9-----------------|
--------------5-----|--------------5-----|--------------5-----|
-----7--6--7-----7--|-----7--6--7-----7--|-----7--6--7-----7--|


     PM PM PM    PM       PM PM PM    PM       PM PM PM    PM
  E  E  E  E  E  E     E  E  E  E  E  E     E  E  E  E  E  E
--------------------|--------------------|--------------------|
--------------------|--------------------|--------------------|
--------------------|--------------------|--------------------|
--9-----------0-----|--5-----------------|--5-----------------|
--------------------|--------------5-----|--------------4-----|
-----7--6--7-----7--|-----6--3--6-----3--|-----6--3--6-----2--|


     PM PM PM    PM       PM PM PM    PM
  E  E  E  E  E  E     E  E  E  E  E  E     S S S S S S S S  S  S  S  S
--------------------|--------------------|------------------------------|
--------------------|--------------------|------------------------------|
--------------------|--------------------|------------------------------|
--4-----------------|--4-----------------|----------9-9-9-9-------------|
--------------4-----|--------------4-----|------------------10-10-10-10-|
-----6--2--6-----2--|-----6--2--6-----2--|--7-7-7-7---------------------|


  S S S S S S S S S S S S    S S S S S S S S S S S S
--------------------------|--------------------------|
--------------------------|--------------------------|
--------------------------|--------------------------|
--------------------------|--------------------------|
--9-9-9-9-9-9-9-9-9-9-9-9-|--------------------------|
--------------------------|--7-7-7-7-7-7-7-7-7-7-7-7-|


   S  S  S  S  S  S  S  S  S  S  S  S    S S S S S S S S S S S S
--------------------------------------|--------------------------|
--------------------------------------|--------------------------|
--------------------------------------|--------------------------|
--------------------------------------|------------------8-8-8-8-|
--------------------------------------|--7-7-7-7-7-7-7-7---------|
--10-10-10-10-10-10-10-10-10-10-10-10-|--------------------------|


  S S S S S S S S  S  S  S  S    S S S S S S S S S S S S
------------------------------|--------------------------|
------------------------------|--------------------------|
------------------------------|--------------------------|
------------------------------|--------------------------|
--9-9-9-9-9-9-9-9-10-10-10-10-|--9-9-9-9-9-9-9-9-9-9-9-9-|
------------------------------|--------------------------|


  S S S S S S S S S S S S    S S S S S S S S  S  S  S  S
--------------------------|------------------------------|
--------------------------|------------------------------|
--------------------------|------------------------------|
--------------------------|----------9-9-9-9-------------|
--9-9-9-9-9-9-9-9-9-9-9-9-|------------------10-10-10-10-|
--------------------------|--7-7-7-7---------------------|


  S S S S S S S S S S S S    S S S S S S S S S S S S
--------------------------|--------------------------|
--------------------------|--------------------------|
--------------------------|--------------------------|
--------------------------|--------------------------|
--9-9-9-9-9-9-9-9-9-9-9-9-|--------------------------|
--------------------------|--7-7-7-7-7-7-7-7-7-7-7-7-|


   S  S  S  S  S  S  S  S  S  S  S  S    S S S S S S S S S S S S
--------------------------------------|--------------------------|
--------------------------------------|--------------------------|
--------------------------------------|--------------------------|
--------------------------------------|------------------8-8-8-8-|
--------------------------------------|--7-7-7-7-7-7-7-7---------|
--10-10-10-10-10-10-10-10-10-10-10-10-|--------------------------|


  S S S S S S S S  S  S  S  S    S S S S S S S S S S S S
------------------------------|--------------------------|
------------------------------|--------------------------|
------------------------------|--------------------------|
------------------------------|--8-8-8-8-8-8-8-8-8-8-8-8-|
--9-9-9-9-9-9-9-9-10-10-10-10-|--------------------------|
------------------------------|--------------------------|


                                PM PM PM    PM       PM PM PM    PM
  S S S S S S S S S S S S    E  E  E  E  E  E     E  E  E  E  E  E
--------------------------|--------------------|--------------------|
--------------------------|--------------------|--------------------|
--------------------------|--------------------|--------------------|
--8-8-8-8-8-8-8-8-8-8-8-8-|--9-----------------|--9-----------------|
--------------------------|--------------5-----|--------------5-----|
--------------------------|-----7--6--7-----7--|-----7--6--7-----7--|


     PM PM PM    PM       PM PM PM    PM       PM PM PM    PM
  E  E  E  E  E  E     E  E  E  E  E  E     E  E  E  E  E  E
--------------------|--------------------|--------------------|
--------------------|--------------------|--------------------|
--------------------|--------------------|--------------------|
--9-----------------|--9-----------------|--8-----------------|
--------------5-----|--------------7-----|--------------7-----|
-----7--6--7-----7--|-----7--6--7-----7--|-----9--6--9-----6--|


     PM PM PM    PM       PM PM PM    PM       PM PM PM    PM
  E  E  E  E  E  E     E  E  E  E  E  E     E  E  E  E  E  E
--------------------|--------------------|--------------------|
--------------------|--------------------|--------------------|
--------------------|--------------------|--------------------|
--8-----------------|--9-----------------|--9-----------------|
--------------9-----|--------------9-----|--------------9-----|
-----9--6--9-----6--|-----9--7--9-----7--|-----9--7--9-----7--|


     PM PM PM    PM       PM PM PM    PM       PM PM PM    PM
  E  E  E  E  E  E     E  E  E  E  E  E     E  E  E  E  E  E
--------------------|--------------------|--------------------|
--------------------|--------------------|--------------------|
--------------------|--------------------|--------------------|
--9-----------------|--9-----------------|--9-----------------|
--------------5-----|--------------5-----|--------------5-----|
-----7--6--7-----7--|-----7--6--7-----7--|-----7--6--7-----7--|


     PM PM PM    PM       PM PM PM    PM       PM PM PM    PM
  E  E  E  E  E  E     E  E  E  E  E  E     E  E  E  E  E  E
--------------------|--------------------|--------------------|
--------------------|--------------------|--------------------|
--------------------|--------------------|--------------------|
--9-----------0-----|--5-----------------|--5-----------------|
--------------------|--------------5-----|--------------4-----|
-----7--6--7-----7--|-----6--3--6-----3--|-----6--3--6-----2--|


     PM PM PM    PM    PM PM PM PM PM PM PM PM PM       PM PM   PM
  E  E  E  E  E  E     S  S  E  S  S  E  S  S  E     E  E  Q    Q
--------------------|-----------------------------|------------------|
--------------------|-----------------------------|------------------|
--------------------|-----------------------------|------------------|
--4-----------------|-----------------------------|--5---------------|
--------------4-----|--4--4--4--4--4--4--4--4--4--|-----2--2----2----|
-----6--2--6-----2--|--2--2--2--2--2--2--2--2--2--|-----0--0----0----|


  PM   PM                 PM   PM           PM   PM         PM PM   PM
  Q    Q    E  E     Q    Q    Q       Q    Q    Q       E  E  Q    Q
------------------|-----------------|-----------------|------------------|
------------------|-----------------|-----------------|------------------|
------------------|-----------------|-----------------|--4---------------|
------------------|-----------------|-----------------|------------------|
--2----2----5--4--|--5----4----4----|--1----4----4----|-----2--2----2----|
--0----0----------|-------2----2----|-------2----2----|-----0--0----0----|


  PM   PM                                  PM PM PM PM PM       PM PM   PM
  Q    Q    E  E     Q.     Q.        Q    S  S  E  E  E     E  E  Q    Q
-----------------|----------------|----------------------|------------------|
-----------------|----------------|----------------------|------------------|
-----------------|----------------|----------------------|------------------|
-----------------|--4------8------|--4-------------------|--5---------------|
-2----2----5--4--|----------------|-------4--4--4--4--4--|-----2--2----2----|
-0----0----------|--2------6------|--2----2--2--2--2--2--|-----0--0----0----|


  PM   PM   PM PM       PM PM PM PM PM                        PM PM   PM
  Q    Q    E  E     E  E  E  E  E  E     H.               E  E  Q    Q
------------------|--------------------|----------------|------------------|
------------------|--------------------|----------------|------------------|
------------------|--------------------|----------------|------------------|
------------------|--4--2--------------|----------------|--5---------------|
--2----2----5--4--|--------5--4--2--4--|--1~------------|-----2--2----2----|
--0----0----------|--------------------|----------------|-----0--0----0----|


  PM   PM            tr                 tr
  Q    Q    E  E     H.                 H.
------------------|------------------|------------------|
------------------|------------------|------------------|
------------------|------------------|------------------|
------------------|------------------|------------------|
--2----2----5--4--|------------------|------------------|
--0----0----------|--2(3)------------|--6(7)------------|


  S S S S S S S S  S  S  S  S    S S S S S S S S S S S S
------------------------------|--------------------------|
------------------------------|--------------------------|
------------------------------|--------------------------|
----------9-9-9-9-------------|--------------------------|
------------------10-10-10-10-|--9-9-9-9-9-9-9-9-9-9-9-9-|
--7-7-7-7---------------------|--------------------------|


  S S S S S S S S S S S S     S  S  S  S  S  S  S  S  S  S  S  S
--------------------------|--------------------------------------|
--------------------------|--------------------------------------|
--------------------------|--------------------------------------|
--------------------------|--------------------------------------|
--------------------------|--------------------------------------|
--7-7-7-7-7-7-7-7-7-7-7-7-|--10-10-10-10-10-10-10-10-10-10-10-10-|


  S S S S S S S S S S S S    S S S S S S S S  S  S  S  S
--------------------------|------------------------------|
--------------------------|------------------------------|
--------------------------|------------------------------|
------------------8-8-8-8-|------------------------------|
--7-7-7-7-7-7-7-7---------|--9-9-9-9-9-9-9-9-10-10-10-10-|
--------------------------|------------------------------|


  S S S S S S S S S S S S    S S S S S S S S S S S S
--------------------------|--------------------------|
--------------------------|--------------------------|
--------------------------|--------------------------|
--------------------------|--------------------------|
--9-9-9-9-9-9-9-9-9-9-9-9-|--9-9-9-9-9-9-9-9-9-9-9-9-|
--------------------------|--------------------------|


  S S S S S S S S  S  S  S  S    S S S S S S S S S S S S
------------------------------|--------------------------|
------------------------------|--------------------------|
------------------------------|--------------------------|
----------9-9-9-9-------------|--------------------------|
------------------10-10-10-10-|--9-9-9-9-9-9-9-9-9-9-9-9-|
--7-7-7-7---------------------|--------------------------|


  S S S S S S S S S S S S     S  S  S  S  S  S  S  S  S  S  S  S
--------------------------|--------------------------------------|
--------------------------|--------------------------------------|
--------------------------|--------------------------------------|
--------------------------|--------------------------------------|
--------------------------|--------------------------------------|
--7-7-7-7-7-7-7-7-7-7-7-7-|--10-10-10-10-10-10-10-10-10-10-10-10-|


  S S S S S S S S S S S S    S S S S S S S S  S  S  S  S
--------------------------|------------------------------|
--------------------------|------------------------------|
--------------------------|------------------------------|
------------------8-8-8-8-|------------------------------|
--7-7-7-7-7-7-7-7---------|--9-9-9-9-9-9-9-9-10-10-10-10-|
--------------------------|------------------------------|

**************************Start Solo - (T3RK)********************************

                                                        PM PM PM PM    PM
  S S S S S S S S S S S S    S S S S S S S S S S S S    E  E  E  E  E  E
--------------------------|--------------------------|--------------------|
--------------------------|--------------------------|--------------------|
--------------------------|--------------------------|--------------------|
--8-8-8-8-8-8-8-8-8-8-8-8-|--8-8-8-8-8-8-8-8-8-8-8-8-|--------------------|
--------------------------|--------------------------|--------------5-----|
--------------------------|--------------------------|--7--6--3--6-----3--|


     PM PM PM    PM       PM PM PM    PM       PM PM PM    PM
  E  E  E  E  E  E     E  E  E  E  E  E     E  E  E  E  E  E
--------------------|--------------------|--------------------|
--------------------|--------------------|--------------------|
--------------------|--------------------|--------------------|
--5-----------------|--5-----------------|--5-----------------|
--------------5-----|--------------5-----|--------------9-----|
-----6--3--6-----3--|-----6--3--6-----3--|-----6--3--6-----7--|


     PM PM PM    PM       PM PM PM    PM       PM PM PM    PM
  E  E  E  E  E  E     E  E  E  E  E  E     E  E  E  E  E  E
--------------------|--------------------|--------------------|
--------------------|--------------------|--------------------|
--------------------|--------------------|--------------------|
--9-----------------|--9-----------------|--9-----------------|
--------------9-----|--------------9-----|--------------9-----|
-----9--7--9-----7--|-----9--7--9-----7--|-----9--7--9-----7--|


     PM PM PM    PM       PM PM PM    PM       PM PM PM    PM
  E  E  E  E  E  E     E  E  E  E  E  E     E  E  E  E  E  E
--------------------|--------------------|--------------------|
--------------------|--------------------|--------------------|
--------------------|--------------------|--------------------|
--9-----------------|--5-----------------|--5-----------------|
--------------5-----|--------------5-----|--------------5-----|
-----9--7--9-----3--|-----6--3--6-----3--|-----6--3--6-----3--|


     PM PM PM    PM       PM PM PM    PM       PM PM PM    PM
  E  E  E  E  E  E     E  E  E  E  E  E     E  E  E  E  E  E
--------------------|--------------------|--------------------|
--------------------|--------------------|--------------------|
--------------------|--------------------|--------------------|
--5-----------------|--5-----------------|--9-----------------|
--------------5-----|--------------9-----|--------------9-----|
-----6--3--6-----3--|-----6--3--6-----7--|-----9--7--9-----7--|


     PM PM PM    PM       PM PM PM    PM       PM PM PM    PM
  E  E  E  E  E  E     E  E  E  E  E  E     E  E  E  E  E  E
--------------------|--------------------|--------------------|
--------------------|--------------------|--------------------|
--------------------|--------------------|--------------------|
--9-----------------|--9-----------------|--9-----------------|
--------------9-----|--------------9-----|--------------9-----|
-----9--7--9-----7--|-----9--7--9-----7--|-----9--7--9-----7--|


  PM PM PM    PM    PM          PM PM PM PM PM PM    PM PM PM    PM    PM
  S  S  E  E  E  E  E     E  E  S  S  E  S  S  E     S  S  E  E  E  E  E
-----------------------|--------------------------|-----------------------|
-----------------------|--------------------------|-----------------------|
-----------------------|--------------------------|-----------------------|
-----------------5-----|--------------------------|-----------------5-----|
-----------7-----------|--4-----------------------|-----------7-----------|
--3--3--3-----3-----3--|-----3--3--3--3--2--2--2--|--3--3--3-----3-----3--|


        PM PM PM PM PM PM    PM PM PM    PM    PM          PM PM PM PM PM PM
  E  E  S  S  E  S  S  E     S  S  E  E  E  E  E     E  E  S  S  E  S  S  E
-------------------------|-----------------------|--------------------------|
-------------------------|-----------------------|--------------------------|
-------------------------|-----------------------|--------------------------|
-------------------------|-----------------4-----|--------------------------|
-4-----------------------|-----------4-----------|--2-----------------------|
----3--3--3--3--0--0--0--|--2--2--2-----2-----2--|-----2--2--2--2--0--0--0--|


  PM PM PM    PM    PM          PM PM PM PM PM PM    PM PM PM    PM    PM
  S  S  E  E  E  E  E     E  E  S  S  E  S  S  E     S  S  E  E  E  E  E
-----------------------|--------------------------|-----------------------|
-----------------------|--------------------------|-----------------------|
-----------------------|--------------------------|-----------------------|
-----------------4-----|--------------------------|-----------------5-----|
-----------4-----------|--2-----------------------|-----------7-----------|
--2--2--2-----2-----2--|-----2--2--2--2--0--0--0--|--3--3--3-----3-----3--|


        PM PM PM PM PM PM    PM PM PM    PM    PM          PM PM PM PM PM PM
  E  E  S  S  E  S  S  E     S  S  E  E  E  E  E     E  E  S  S  E  S  S  E
-------------------------|-----------------------|--------------------------|
-------------------------|-----------------------|--------------------------|
-------------------------|-----------------------|--------------------------|
-------------------------|-----------------5-----|--------------------------|
-4-----------------------|-----------7-----------|--4-----------------------|
----3--3--3--3--2--2--2--|--3--3--3-----3-----3--|-----3--3--3--3--0--0--0--|


  PM PM PM    PM    PM          PM PM PM PM PM PM    PM PM PM    PM    PM
  S  S  E  E  E  E  E     E  E  S  S  E  S  S  E     S  S  E  E  E  E  E
-----------------------|--------------------------|-----------------------|
-----------------------|--------------------------|-----------------------|
-----------------------|--------------------------|-----------------------|
-----------------4-----|--------------------------|-----------------4-----|
-----------4-----------|--2-----------------------|-----------4-----------|
--2--2--2-----2-----2--|-----2--2--2--2--0--0--0--|--2--2--2-----2-----2--|

**************End Solo - [(T3RK) Last Note Holds Next 3 Bars]***************

        PM PM PM PM PM PM
  E  E  S  S  E  S  S  E     S S S S S S S S S S S S
--------------------------|--------------------------|
--------------------------|--------------------------|
--------------------------|--------------------------|
--------------------------|--------------------------|
--2-----------------------|--7-7-7-7-7-7-7-7-7-7-7-7-|
-----2--2--2--2--0--0--0--|--------------------------|


  S S S S S S S S S S S S    S S S S S S S S S S S S
--------------------------|--------------------------|
--------------------------|--------------------------|
--------------------------|--------------------------|
--------------------------|--------------------------|
--7-7-7-7-7-7-7-7-7-7-7-7-|--------------------------|
--------------------------|--9-9-9-9-9-9-9-9-9-9-9-9-|


  S S S S S S S S S S S S     S  S  S  S  S  S  S  S  S  S  S  S
--------------------------|--------------------------------------|
--------------------------|--------------------------------------|
--------------------------|--------------------------------------|
--------------------------|--------------------------------------|
--------------------------|--------------------------------------|
--9-9-9-9-9-9-9-9-9-9-9-9-|--10-10-10-10-10-10-10-10-10-10-10-10-|


   S  S  S  S  S  S  S  S  S  S  S  S    S S S S S S S S S S S S
--------------------------------------|--------------------------|
--------------------------------------|--------------------------|
--------------------------------------|--------------------------|
--------------------------------------|--------------------------|
--------------------------------------|--------------------------|
--10-10-10-10-10-10-10-10-10-10-10-10-|--9-9-9-9-9-9-9-9-9-9-9-9-|


  S S S S S S S S S S S S    S S S S S S S S S S S S
--------------------------|--------------------------|
--------------------------|--------------------------|
--------------------------|--------------------------|
--------------------------|--------------------------|
--------------------------|--7-7-7-7-7-7-7-7-7-7-7-7-|
--7-7-7-7-7-7-7-7-7-7-7-7-|--------------------------|


  S S S S S S S S S S S S    S S S S S S S S S S S S
--------------------------|--------------------------|
--------------------------|--------------------------|
--------------------------|--------------------------|
--------------------------|--------------------------|
--7-7-7-7-7-7-7-7-7-7-7-7-|--------------------------|
--------------------------|--9-9-9-9-9-9-9-9-9-9-9-9-|


  S S S S S S S S S S S S     S  S  S  S  S  S  S  S  S  S  S  S
--------------------------|--------------------------------------|
--------------------------|--------------------------------------|
--------------------------|--------------------------------------|
--------------------------|--------------------------------------|
--------------------------|--------------------------------------|
--9-9-9-9-9-9-9-9-9-9-9-9-|--10-10-10-10-10-10-10-10-10-10-10-10-|


   S  S  S  S  S  S  S  S  S  S  S  S    S S S S S S S S S S S S
--------------------------------------|--------------------------|
--------------------------------------|--------------------------|
--------------------------------------|--------------------------|
--------------------------------------|--------------------------|
--------------------------------------|--------------------------|
--10-10-10-10-10-10-10-10-10-10-10-10-|--9-9-9-9-9-9-9-9-9-9-9-9-|


  S S S S S S S S S S S S    S S S S S S S S S S S S
--------------------------|--------------------------|
--------------------------|--------------------------|
--------------------------|--------------------------|
--------------------------|--------------------------|
--------------------------|--7-7-7-7-7-7-7-7-7-7-7-7-|
--7-7-7-7-7-7-7-7-7-7-7-7-|--------------------------|


  S S S S S S S S S S S S    S S S S S S S S S S S S
--------------------------|--------------------------|
--------------------------|--------------------------|
--------------------------|--------------------------|
--------------------------|--------------------------|
--7-7-7-7-7-7-7-7-7-7-7-7-|--------------------------|
--------------------------|--9-9-9-9-9-9-9-9-9-9-9-9-|


  S S S S S S S S S S S S     S  S  S  S  S  S  S  S  S  S  S  S
--------------------------|--------------------------------------|
--------------------------|--------------------------------------|
--------------------------|--------------------------------------|
--------------------------|--------------------------------------|
--------------------------|--------------------------------------|
--9-9-9-9-9-9-9-9-9-9-9-9-|--10-10-10-10-10-10-10-10-10-10-10-10-|


   S  S  S  S  S  S  S  S  S  S  S  S    S S S S S S S S S S S S
--------------------------------------|--------------------------|
--------------------------------------|--------------------------|
--------------------------------------|--------------------------|
--------------------------------------|--------------------------|
--------------------------------------|--------------------------|
--10-10-10-10-10-10-10-10-10-10-10-10-|--9-9-9-9-9-9-9-9-9-9-9-9-|


  S S S S S S S S S S S S    S S S S S S S S S S S S
--------------------------|--------------------------|
--------------------------|--------------------------|
--------------------------|--------------------------|
--------------------------|--------------------------|
--------------------------|--7-7-7-7-7-7-7-7-7-7-7-7-|
--7-7-7-7-7-7-7-7-7-7-7-7-|--------------------------|


  S S S S S S S S S S S S    S S S S S S S S S S S S
--------------------------|--------------------------|
--------------------------|--------------------------|
--------------------------|--------------------------|
--------------------------|--------------------------|
--7-7-7-7-7-7-7-7-7-7-7-7-|--------------------------|
--------------------------|--9-9-9-9-9-9-9-9-9-9-9-9-|


  S S S S S S S S S S S S     S  S  S  S  S  S  S  S  S  S  S  S
--------------------------|--------------------------------------|
--------------------------|--------------------------------------|
--------------------------|--------------------------------------|
--------------------------|--------------------------------------|
--------------------------|--------------------------------------|
--9-9-9-9-9-9-9-9-9-9-9-9-|--10-10-10-10-10-10-10-10-10-10-10-10-|


   S  S  S  S  S  S  S  S  S  S  S  S    S S S S S S S S S S S S
--------------------------------------|--------------------------|
--------------------------------------|--------------------------|
--------------------------------------|--------------------------|
--------------------------------------|--------------------------|
--------------------------------------|--------------------------|
--10-10-10-10-10-10-10-10-10-10-10-10-|--9-9-9-9-9-9-9-9-9-9-9-9-|


                                PM PM PM    PM       PM PM PM    PM
  S S S S S S S S S S S S    E  E  E  E  E  E     E  E  E  E  E  E
--------------------------|--------------------|--------------------|
--------------------------|--------------------|--------------------|
--------------------------|--------------------|--------------------|
--------------------------|--5-----------------|--5-----------------|
--------------------------|--------------5-----|--------------4-----|
--7-7-7-7-7-7-7-7-7-7-7-7-|-----6--3--6-----3--|-----6--3--6-----6--|


     PM PM PM    PM       PM PM PM     PM         PM PM  PM    PM
  E  E  E  E  E  E     E  E  E  E   E  E      E   E  E   E  E  E
--------------------|---------------------|-----------------------|
--------------------|---------------------|-----------------------|
--------------------|---------------------|-----------------------|
--8-----------------|--8------------------|--12-------------------|
--------------7-----|---------------------|-----------------9-----|
-----9--6--9-----6--|-----9--6--9--10--6--|------10--9--10-----9--|


       PM PM  PM     PM       PM PM PM    PM       PM PM PM    PM
   E   E  E   E   E  E     E  E  E  E  E  E     E  E  E  E  E  E
------------------------|--------------------|--------------------|
------------------------|--------------------|--------------------|
------------------------|--------------------|--------------------|
--12--------------------|--8-----------------|--8-----------------|
-----------------10-----|--------------7-----|--------------7-----|
------10--9--10------9--|-----6--3--6-----3--|-----6--3--6-----3--|


     PM PM PM    PM       PM PM PM    PM       PM PM PM    PM
  E  E  E  E  E  E     E  E  E  E  E  E     E  E  E  E  E  E
--------------------|--------------------|--------------------|
--------------------|--------------------|--------------------|
--------------------|--------------------|--------------------|
--5-----------------|--5-----------------|--8-----------------|
--------------5-----|--------------4-----|--------------7-----|
-----6--3--6-----3--|-----6--3--6-----6--|-----9--6--9-----6--|


     PM PM PM     PM         PM PM  PM    PM         PM PM  PM     PM
  E  E  E  E   E  E      E   E  E   E  E  E      E   E  E   E   E  E
---------------------|-----------------------|------------------------|
---------------------|-----------------------|------------------------|
---------------------|-----------------------|------------------------|
--8------------------|--12-------------------|--12--------------------|
---------------------|-----------------9-----|-----------------10-----|
-----9--6--9--10--6--|------10--9--10-----9--|------10--9--10------9--|


     PM PM PM    PM       PM PM PM    PM       PM PM PM    PM
  E  E  E  E  E  E     E  E  E  E  E  E     E  E  E  E  E  E
--------------------|--------------------|--------------------|
--------------------|--------------------|--------------------|
--------------------|--------------------|--------------------|
--8-----------------|--8-----------------|--5-----------------|
--------------7-----|--------------7-----|--------------5-----|
-----6--3--6-----3--|-----6--3--6-----3--|-----6--3--6-----3--|


     PM PM PM    PM       PM PM PM    PM       PM PM PM     PM
  E  E  E  E  E  E     E  E  E  E  E  E     E  E  E  E   E  E
--------------------|--------------------|---------------------|
--------------------|--------------------|---------------------|
--------------------|--------------------|---------------------|
--5-----------------|--8-----------------|--8------------------|
--------------4-----|--------------7-----|---------------------|
-----6--3--6-----6--|-----9--6--9-----6--|-----9--6--9--10--6--|


       PM PM  PM    PM         PM PM  PM     PM       PM PM PM    PM
   E   E  E   E  E  E      E   E  E   E   E  E     E  E  E  E  E  E
-----------------------|------------------------|--------------------|
-----------------------|------------------------|--------------------|
-----------------------|------------------------|--------------------|
--12-------------------|--12--------------------|--8-----------------|
-----------------9-----|-----------------10-----|--------------7-----|
------10--9--10-----9--|------10--9--10------9--|-----6--3--6-----3--|


     PM PM PM    PM       PM PM PM    PM       PM PM PM    PM
  E  E  E  E  E  E     E  E  E  E  E  E     E  E  E  E  E  E
--------------------|--------------------|--------------------|
--------------------|--------------------|--------------------|
--------------------|--------------------|--------------------|
--8-----------------|--5-----------------|--5-----------------|
--------------7-----|--------------5-----|--------------4-----|
-----6--3--6-----3--|-----6--3--6-----3--|-----6--3--6-----6--|


     PM PM PM    PM       PM PM PM     PM         PM PM  PM    PM
  E  E  E  E  E  E     E  E  E  E   E  E      E   E  E   E  E  E
--------------------|---------------------|-----------------------|
--------------------|---------------------|-----------------------|
--------------------|---------------------|-----------------------|
--8-----------------|--8------------------|--12-------------------|
--------------7-----|---------------------|-----------------9-----|
-----9--6--9-----6--|-----9--6--9--10--6--|------10--9--10-----9--|


       PM PM  PM     PM       PM PM PM    PM    PM PM PM PM PM PM PM PM PM
   E   E  E   E   E  E     E  E  E  E  E  E     S  S  E  S  S  E  S  S  E
------------------------|--------------------|-----------------------------|
------------------------|--------------------|-----------------------------|
------------------------|--------------------|-----------------------------|
--12--------------------|--8-----------------|-----------------------------|
-----------------10-----|--------------7-----|--4--4--4--4--4--4--4--4--4--|
------10--9--10------9--|-----6--3--6-----3--|--2--2--2--2--2--2--2--2--2--|


     PM PM   PM      PM   PM                 PM   PM           PM   PM
  E  E  Q    Q       Q    Q    E  E     Q    Q    Q       Q    Q    Q
------------------|------------------|-----------------|-----------------|
------------------|------------------|-----------------|-----------------|
------------------|------------------|-----------------|-----------------|
--5---------------|------------------|-----------------|-----------------|
-----2--2----2----|--2----2----5--4--|--5----4----4----|--1----4----4----|
-----0--0----0----|--0----0----------|-------2----2----|-------2----2----|


     PM PM   PM      PM   PM                                  PM PM PM PM PM
  E  E  Q    Q       Q    Q    E  E     Q.     Q.        Q    S  S  E  E  E
-----------------|------------------|----------------|----------------------|
-----------------|------------------|----------------|----------------------|
-4---------------|------------------|----------------|----------------------|
-----------------|------------------|--4------8------|--4-------------------|
----2--2----2----|--2----2----5--4--|----------------|-------4--4--4--4--4--|
----0--0----0----|--0----0----------|--2------6------|--2----2--2--2--2--2--|


     PM PM   PM      PM   PM   PM PM       PM PM PM PM PM
  E  E  Q    Q       Q    Q    E  E     E  E  E  E  E  E     H.
------------------|------------------|--------------------|----------------|
------------------|------------------|--------------------|----------------|
------------------|------------------|--------------------|----------------|
--5---------------|------------------|--4--2--------------|----------------|
-----2--2----2----|--2----2----5--4--|--------5--4--2--4--|--1~------------|
-----0--0----0----|--0----0----------|--------------------|----------------|


     PM PM   PM      PM   PM            tr                 tr
  E  E  Q    Q       Q    Q    E  E     H.                 H.
------------------|------------------|------------------|------------------|
------------------|------------------|------------------|------------------|
------------------|------------------|------------------|------------------|
--5---------------|------------------|------------------|------------------|
-----2--2----2----|--2----2----5--4--|------------------|------------------|
-----0--0----0----|--0----0----------|--2(3)------------|--6(7)------------|


  S S S S S S S S  S  S  S  S    S S S S S S S S S S S S
------------------------------|--------------------------|
------------------------------|--------------------------|
------------------------------|--------------------------|
----------9-9-9-9-------------|--------------------------|
------------------10-10-10-10-|--9-9-9-9-9-9-9-9-9-9-9-9-|
--7-7-7-7---------------------|--------------------------|


  S S S S S S S S S S S S     S  S  S  S  S  S  S  S  S  S  S  S
--------------------------|--------------------------------------|
--------------------------|--------------------------------------|
--------------------------|--------------------------------------|
--------------------------|--------------------------------------|
--------------------------|--------------------------------------|
--7-7-7-7-7-7-7-7-7-7-7-7-|--10-10-10-10-10-10-10-10-10-10-10-10-|


  S S S S S S S S S S S S    S S S S S S S S  S  S  S  S
--------------------------|------------------------------|
--------------------------|------------------------------|
--------------------------|------------------------------|
------------------8-8-8-8-|------------------------------|
--7-7-7-7-7-7-7-7---------|--9-9-9-9-9-9-9-9-10-10-10-10-|
--------------------------|------------------------------|


  S S S S S S S S S S S S    S S S S S S S S S S S S
--------------------------|--------------------------|
--------------------------|--------------------------|
--------------------------|--------------------------|
--------------------------|--------------------------|
--9-9-9-9-9-9-9-9-9-9-9-9-|--9-9-9-9-9-9-9-9-9-9-9-9-|
--------------------------|--------------------------|


  S S S S S S S S  S  S  S  S    S S S S S S S S S S S S
------------------------------|--------------------------|
------------------------------|--------------------------|
------------------------------|--------------------------|
----------9-9-9-9-------------|--------------------------|
------------------10-10-10-10-|--9-9-9-9-9-9-9-9-9-9-9-9-|
--7-7-7-7---------------------|--------------------------|


  S S S S S S S S S S S S     S  S  S  S  S  S  S  S  S  S  S  S
--------------------------|--------------------------------------|
--------------------------|--------------------------------------|
--------------------------|--------------------------------------|
--------------------------|--------------------------------------|
--------------------------|--------------------------------------|
--7-7-7-7-7-7-7-7-7-7-7-7-|--10-10-10-10-10-10-10-10-10-10-10-10-|


  S S S S S S S S S S S S    S S S S S S S S  S  S  S  S
--------------------------|------------------------------|
--------------------------|------------------------------|
--------------------------|------------------------------|
------------------8-8-8-8-|------------------------------|
--7-7-7-7-7-7-7-7---------|--9-9-9-9-9-9-9-9-10-10-10-10-|
--------------------------|------------------------------|


  S S S S S S S S S S S S    S S S S S S S S S S S S
--------------------------|--------------------------|
--------------------------|--------------------------|
--------------------------|--------------------------|
--8-8-8-8-8-8-8-8-8-8-8-8-|--8-8-8-8-8-8-8-8-8-8-8-8-|
--------------------------|--------------------------|
--------------------------|--------------------------|


  S S S S S S S S  S  S  S  S    S S S S S S S S S S S S
------------------------------|--------------------------|
------------------------------|--------------------------|
------------------------------|--------------------------|
----------9-9-9-9-------------|--------------------------|
------------------10-10-10-10-|--9-9-9-9-9-9-9-9-9-9-9-9-|
--7-7-7-7---------------------|--------------------------|


  S S S S S S S S S S S S     S  S  S  S  S  S  S  S  S  S  S  S
--------------------------|--------------------------------------|
--------------------------|--------------------------------------|
--------------------------|--------------------------------------|
--------------------------|--------------------------------------|
--------------------------|--------------------------------------|
--7-7-7-7-7-7-7-7-7-7-7-7-|--10-10-10-10-10-10-10-10-10-10-10-10-|


  S S S S S S S S S S S S    S S S S S S S S  S  S  S  S
--------------------------|------------------------------|
--------------------------|------------------------------|
--------------------------|------------------------------|
------------------8-8-8-8-|------------------------------|
--7-7-7-7-7-7-7-7---------|--9-9-9-9-9-9-9-9-10-10-10-10-|
--------------------------|------------------------------|


  S S S S S S S S S S S S    S S S S S S S S S S S S
--------------------------|--------------------------|
--------------------------|--------------------------|
--------------------------|--------------------------|
--------------------------|--------------------------|
--9-9-9-9-9-9-9-9-9-9-9-9-|--9-9-9-9-9-9-9-9-9-9-9-9-|
--------------------------|--------------------------|


  S S S S S S S S  S  S  S  S    S S S S S S S S S S S S
------------------------------|--------------------------|
------------------------------|--------------------------|
------------------------------|--------------------------|
----------9-9-9-9-------------|--------------------------|
------------------10-10-10-10-|--9-9-9-9-9-9-9-9-9-9-9-9-|
--7-7-7-7---------------------|--------------------------|


  S S S S S S S S S S S S     S  S  S  S  S  S  S  S  S  S  S  S
--------------------------|--------------------------------------|
--------------------------|--------------------------------------|
--------------------------|--------------------------------------|
--------------------------|--------------------------------------|
--------------------------|--------------------------------------|
--7-7-7-7-7-7-7-7-7-7-7-7-|--10-10-10-10-10-10-10-10-10-10-10-10-|


  S S S S S S S S S S S S    S S S S S S S S  S  S  S  S
--------------------------|------------------------------|
--------------------------|------------------------------|
--------------------------|------------------------------|
------------------8-8-8-8-|------------------------------|
--7-7-7-7-7-7-7-7---------|--9-9-9-9-9-9-9-9-10-10-10-10-|
--------------------------|------------------------------|


  S S S S S S S S S S S S    S S S S S S S S S S S S    Q    Q    Q
--------------------------|--------------------------|-----------------|
--------------------------|--------------------------|-----------------|
--------------------------|--------------------------|-----------------|
--8-8-8-8-8-8-8-8-8-8-8-8-|--8-8-8-8-8-8-8-8-8-8-8-8-|--5--------------|
--------------------------|--------------------------|--5----5----5----|
--------------------------|--------------------------|--3----3----3----|


       PM PM PM PM                        PM   PM   PM
  Q    E  E  E  E     Q     Q     Q       Q    Q    Q       Q    H
-------------------|-------------------|-----------------|----------------||
-------------------|-------------------|-----------------|----------------||
-------------------|-------------------|-----------------|----------------||
-------------------|--9s----8-----9----|-----------------|--9-------------||
--4----4--4--4--4--|-------------------|--5----4----5----|--9-------------||
--2----2--2--2--2--|--7s----6s----7----|--3----2----3----|--7-------------||




=============================================================================
=============================================================================
=============================================================================




-T3RK


Necropolis


                          The Black Dahlia Murder
Ryan Knight

*Instead of editing-in 80 or so empty bars, I'm just going to label the bar the solo 
on at the beginning, and the end, on every track just to make it a little easier. It should 
be a row of stars (*).*


*************************************************************************

                  H          Q        H.               Q     Q     Q
-------|-------|------------------|-----------------|-------------------|
-------|-------|------------------|-----------------|-------12----14----|
-------|-------|--9~--------12----|--11~------------|--L----------------|
-------|-------|------------------|-----------------|-------------------|
-------|-------|------------------|-----------------|-------------------|
-------|-------|------------------|-----------------|-------------------|


   Q      Q     Q        Q     H            H.
---------------------|-------------------|---------------|
--14b-----L----12----|--14---------------|---------------|
---------------------|--------11~--------|--L------------|
---------------------|-------------------|---------------|
---------------------|-------------------|---------------|
---------------------|-------------------|---------------|


   This whole section
   E                  E    E    E    E   E
--12h----------------13h--14p--13p--12-------|
----------------------------------------15h--|
---------------------------------------------|
---------------------------------------------|
---------------------------------------------|
---------------------------------------------|


   is hammered
   E           E    E   E    E    E      H.
-------------------------------------|-----------------|
--14p---------13p--12----------------|--12~------------|
-----------------------15p--12h--15--|-----------------|
-------------------------------------|-----------------|
-------------------------------------|-----------------|
-------------------------------------|-----------------|


                                                         |----3----|
  Q    S    E.   E   E      H.                H          E    E    E
----------------12---L--|--14~------------|--14b--------15p--14p--12--|
--L----7s-/12-------12--|-----------------|---------------------------|
------------------------|-----------------|---------------------------|
------------------------|-----------------|---------------------------|
------------------------|-----------------|---------------------------|
------------------------|-----------------|---------------------------|


                                     Harmonized Guitar
   H.               H.               Q                 Q     Q
--14~------------|--L------------|--18----------------15----------|
-----------------|---------------|--20----------------17----17----|
-----------------|---------------|--------------------------18----|
-----------------|---------------|--------------------------------|
-----------------|---------------|--------------------------------|
-----------------|---------------|--------------------------------|


   W                            T              T              T
   H.               S   S   S   S  S   S   S   S  S   S   S   S
--21------------|-----------------------------------------------|
--23------------|-----------------------------------------------|
----------------|-----------------------------------------------|
----------------|--------------------------------11h-12h-14h-16-|
----------------|-----------------10h-13h-14h-16----------------|
----------------|--10h-12h-14h-15-------------------------------|


               T              T
   S   S   S   S  S   S   S   S  S   S   S  S
-------------------------------------------14-|
--------------------------------14h-15h-17----|
-----------------11h-12h-15h-16---------------|
--12h-14h-16h-17------------------------------|
----------------------------------------------|
----------------------------------------------|


   T              T              T
   S   S   S   S  S   S   S   S  S   S   S   S
--19p-18p-15p-14-------------------------------|
-----------------20p-19p-17p-15----------------|
--------------------------------21p-19p-18p-16-|
-----------------------------------------------|
-----------------------------------------------|
-----------------------------------------------|


   T              T              T
   S   S   S   S  S   S   S   S  S   S   S   S
-----------------------------------------------|
-----------------------------------------------|
-----------------------------------------------|
--21p-20p-17p-16-------------------------------|
-----------------22p-21p-19p-17----------------|
--------------------------------22p-21p-19p-18-|


   T              T              T                 T
   S   S   S   S  S   S   S   S  S   S   S   S     S   S   S   S  H
-----------------------------------------------|----------------------------|
-----------------------------------------------|----------------------------|
-----------------------------------------------|----------------------------|
--20p-17p-16p-14-------------------------------|----------------------------|
-----------------21p-19p-17h-19-17p-16p-14p-13-|-----------------14~--------|
-----------------------------------------------|--19p-18p-15p-14------------|


   Q     Q     Q        H.                H.               Q     Q     Q
--------------------|-----------------|-----------------|-------------------|
--------------------|-----------------|--17b------------|--L----15----14----|
--------------------|-----------------|-----------------|-------------------|
--------------------|-----------------|-----------------|-------------------|
--14----16----17----|--16~------------|-----------------|-------------------|
--------------------|-----------------|-----------------|-------------------|


   H.               H.               S  S  S  S  S  S  S  S  S  S  S  S
-----------------|---------------|--------------------------------------|
--12~------------|--L------------|--------------------------------------|
-----------------|---------------|-----------15-16-15----------------15-|
-----------------|---------------|--14-16-17----------17-16-14-16-17----|
-----------------|---------------|--------------------------------------|
-----------------|---------------|--------------------------------------|


   S  S  S  S  S  S  S  S  S  S  S  S     S  S  S  S  S  S  S  S  S  S  S  S
-------------------------------------|--15-18-15----------15-18-15----------|
----------15-17-15----15-17-15-------|-----------17----17----------17----15-|
----15-16----------15----------15-16-|--------------16----------------16----|
-17----------------------------------|--------------------------------------|
-------------------------------------|--------------------------------------|
-------------------------------------|--------------------------------------|


   H.                H.               H.              H.
-----------------|-----------------|---------------|---------------|
--14~------------|--17~------------|--L------------|--L------------|
-----------------|-----------------|---------------|---------------|
-----------------|-----------------|---------------|---------------|
-----------------|-----------------|---------------|---------------|
-----------------|-----------------|---------------|---------------|

*****************************************************************************

            
            
Suggest correction
Creating personal tab
Creating personal tab
You can edit any tab online and save it as your Personal.

You can edit, replace or remove any tab part or add personal notes – all changes will be seen only by you.

Personal tabs can be accessed anytime from any device, even offline.
Learn more »
comments
print report bad tab
5 comments total. Showing first comments.
0 reply
El Super Beasto 10 Dec 25, 2009 09:34 AM

You labeled the solo section... but forgot to put it in

0 reply
RNDM 155 Dec 26, 2009 10:59 AM

Gah, damn. Sorry about that. Also, you should probably know that I was unaware of how it converted and I think I posted the same thing 3 times without the solo. I'll try to fix that within a short while.

0 reply
Seth Shadows 4,633 Dec 28, 2009 07:47 AM

Good. You actually gave credit.

The tabs are almost right.

guest
You may want to rate the tab now too:
select rating
Wanna post a correction for this tab? Suggest correction