Oops, an error
Loading. Please wait.

I Gotta Feeling intro tab

version 2
version 2

Intro

Whole song

Interactive

26,724 views 3 this week
3 commentsread comments
1 2 3 4 5
x 14
add to favorites
×
Save as Personal and add changes to this tab that will be seen only by you. Learn more ›
×
You can save this tab as Personal to edit and correct it or add notes. All changes will be seen only by you. Learn more »
launch autoscroll
font size
0
reset
how to read this tab
guitar tuner
backing track
0:00
0:00
edit
Autoscroll
slow
fast
+/-
esc
set tempo
stop
Author
Difficulty
Pretty much this is all I remember hearing other than there voices, so enjoy :]  

As indicated by JacintoVT in the comments this is better sounding
 
e-----------------|----------------|-----------------|----------------|
b-3-3-3-3-1-1-0-0-|-1-1-1-1-1-1-1-1|-0-0-0-0-0-0-0-0-|-1-1-1-1-1-1-1-1|
g-0-0-0-0-0-0-0-0-|-0-0-0-0-0-0-0-0|-0-0-0-0-0-0-0-0-|-0-0-0-0-0-0-0-0|
d-----------------|----------------|-----------------|----------------|
A-----------------|----------------|-----------------|----------------|
E-----------------|----------------|-----------------|----------------|

OR 

 The OG version

e-----------------|-----------------|-----------------|-----------------|
B-----------------|-----------------|-----------------|-----------------|
G-7-7-7-7-5-5-4-4-|-5-5-5-5-5-5-5-5-|-4-4-4-4-4-4-4-4-|-5-5-5-5-5-5-5-5-|
D-5-5-5-5-5-5-5-5-|-5-5-5-5-5-5-5-5-|-5-5-5-5-5-5-5-5-|-5-5-5-5-5-5-5-5-|x3
A-----------------|-----------------|-----------------|-----------------|
E-----------------|-----------------|-----------------|-----------------|

I hate the version above even though it's correct...
This is how I play it, twice as many notes twice as fast sounds wayy more upbeat on the acoustic.

e------------------|------------------|------------------|------------------|
B------------------|------------------|------------------|------------------|
G-7777777755554444-|-5555555555555555-|-4444444444444444-|-5555555555555555-|
D-5555555555555555-|-5555555555555555-|-5555555555555555-|-5555555555555555-|x3
A------------------|------------------|------------------|------------------|
E------------------|------------------|------------------|------------------|

This is pretty much how I hear it. This is my first tab
                                                          -Davie
Suggest correction
Creating personal tab
Creating personal tab
You can edit any tab online and save it as your Personal.

You can edit, replace or remove any tab part or add personal notes – all changes will be seen only by you.

Personal tabs can be accessed anytime from any device, even offline.
Learn more »
comments
print report bad tab
3 comments total.
+2 reply
JacintoVT 10 Jan 09, 2010 12:03 PM

umm i think it sounds better and its easier like this but good job!!

e-----------------|----------------|-----------------|
D-3-3-3-3-1-1-0-0-|-1-1-1-1-1-1-1-1|-0-0-0-0-0-0-0-0-|
G-0-0-0-0-0-0-0-0-|-0-0-0-0-0-0-0-0|-0-0-0-0-0-0-0-0-|
A-----------------|----------------|-----------------|
E-----------------|----------------|-----------------|

e-----------------|
D-1-1-1-1-1-1-1-1-|
G-0-0-0-0-0-0-0-0-|
A-----------------|
E-----------------|

+1 reply
jesseboulting 10 Mar 28, 2013 10:45 AM

I like this tab
It is awesome

guest
You may want to rate the tab now too:
select rating
Wanna post a correction for this tab? Suggest correction