Oops, an error
Loading. Please wait.

The Time Dirty Bit intro tab

253 views 3 this week
no commentswrite comment
1 2 3 4 5
3 more votes to show rating
add to favorites
×
Save as Personal and add changes to this tab that will be seen only by you. Learn more ›
×
You can save this tab as Personal to edit and correct it or add notes. All changes will be seen only by you. Learn more »
launch autoscroll
font size
0
reset
how to read this tab
guitar tuner
edit
Autoscroll
slow
fast
+/-
esc
set tempo
stop
Author
Difficulty
Bueno gente, la verdad que estaba buscando en internet y no encontraba esta tab por 
ningun lado. Así que decidi
hacer una y de pasada para compartirla con todo el mundo... :v

Bueno la intro empieza así:

e|----------------|
b|----------------|
g|----------------|
D|----------------|   (x16 veces)
A|----------7-----|
E|-----0----------|

             --- E ---                              --- C#m ---

e|------------------------------12---|--------------------------------12-----|
b|----------------------9---12-------|-----------------------9---12----------|
g|----------------9--9---------------|--------------9------------------------|
D|------------9----------------------|----------9-------11-------------------|
A|-------11--------------------------|------11-------------------------------|
E|---12------------------------------|---9-----------------------------------|


            --- D ----                               --- D ----

e|------------------------------12---|--------------------------------10----|
b|-----------------------7--10-------|-----------------------7---10---------|
g|---------------9---7---------------|--------------7---7-------------------|
D|-----------7-----------------------|----------7---------------------------|
A|-------9---------------------------|-------9------------------------------|
E|---9-------------------------------|---10---------------------------------|


REPETIR TODO ESOO...

Bueno gente espero que les haya gustado, aqui esta mi canal de youtube en donde subire tutoriales,
ya tengo publicadas algunas tabs a la perfeccion.

MI CANAL DE YOUTUBE:  https://www.youtube.com/channel/UCeUe6WMaEB74ZjTOwCJnhvA
O Busquenme como Ruben Steve

            
            
Suggest correction
Creating personal tab
Creating personal tab
You can edit any tab online and save it as your Personal.

You can edit, replace or remove any tab part or add personal notes – all changes will be seen only by you.

Personal tabs can be accessed anytime from any device, even offline.
Learn more »
Give kudos to tab author, rate the tab!
1 2 3 4 5
comments
print report bad tab
guest
You may want to rate the tab now too:
select rating
Wanna post a correction for this tab? Suggest correction