Oops, an error
Loading. Please wait.
We have Chord Pro version of Where Is The Love.
It's the closest thing you can get to the original song and it has interactive parts. Check out the tab »
×
2,321 views 6 this week
no commentswrite comment
1 2 3 4 5
3 more votes to show rating
add to favorites
×
Save as Personal and add changes to this tab that will be seen only by you. Learn more ›
×
You can save this tab as Personal to edit and correct it or add notes. All changes will be seen only by you. Learn more »
launch autoscroll
font size
0
reset
guitar tuner
edit
Autoscroll
slow
fast
+/-
esc
set tempo
stop
Author
Difficulty
Hi,

Not every section is what is played on the track, although it fits and is musically 
If i'm honest, playing the same one riff through the whole song is a little boring.

Main Riff:

G|----------------|----------------|----------------|-----3-----3--|
D|-3--------3-2---|---2-3-0--------|-2-3------------|--------------|
A|-----3-0--------|-3--------------|-----1x---------|--1-----1-----|
E|----------------|----------------|----------------|--------------|

This is played in the verses and just repeated over and over.

Chorus:

G|----------------|----------------|----------------|--3-3-3-0h3-3-|
D|--3-3-3-0h3-3---|----------------|----------------|--------------|
A|----------------|--3-3-3-0h3-3---|--5-5-5-5h5-5---|--------------|
E|----------------|----------------|----------------|--------------|


As above, not exactly what is played on the track, although this sounds better I think. 
it very short and tight, the more sticato the better. If you wish you can hammer-on each note.

At "The Truth is kept secret" play this, listen for timings.

G|--------3-------|--------3-------|
D|----------------|----------------|
A|1---------------|1---------------|
E|----------------|----------------|

At "I feel the weight of the world" play this, again listen for timings.


G|----------------|----------------|----------------|3-------------|
D|3---------------|----------------|----------------|--------------|
A|----------------|3---------------|5---------------|--------------|
E|----------------|----------------|----------------|--------------|

Thats it! Easy but fun song to play.

Enjoy!

bassmastar_gaz

            
            
Suggest correction
Creating personal tab
Creating personal tab
You can edit any tab online and save it as your Personal.

You can edit, replace or remove any tab part or add personal notes – all changes will be seen only by you.

Personal tabs can be accessed anytime from any device, even offline.
Learn more »
Give kudos to tab author, rate the tab!
1 2 3 4 5
comments
print report bad tab
guest
You may want to rate the tab now too:
select rating
Wanna post a correction for this tab? Suggest correction