Oops, an error
Loading. Please wait.
We have Chord Pro version of Where Is The Love.
It's the closest thing you can get to the original song and it has interactive parts. Check out the tab »
×
41,030 views 108 this week
no commentswrite comment
1 2 3 4 5
x 10
add to favorites
×
Save as Personal and add changes to this tab that will be seen only by you. Learn more ›
×
You can save this tab as Personal to edit and correct it or add notes. All changes will be seen only by you. Learn more »
launch autoscroll
font size
0
reset
how to read this tab
guitar tuner
edit
Autoscroll
slow
fast
+/-
esc
set tempo
stop
Author
Difficulty
intermediate
[Intro]
               F                           C
e|--------------------------|--------------------------|
B|--------10----------------|-------8h10--8h10-8-------|
G|-----10----10-10h12p10----|-----9-9-----9----9-------|
D|--10-------------------10-|--10----------------------|
A|8-------------------------|--------------------------|
E|--------------------------|8-------------------------|

             Dm                            Bb
e|--------------------------|--------------------------|
B|---------10---------------|--------------------------|
G|------10----10-10h12p10---|--10-10h12-10h12-10-------|
D|---12-------------------12|8----8-----8--------------|
A|--------------------------|--------------------------|
E|10------------------------|--------------------------|

(The C and the Dm chords should be played using the thumb-over-bar chord method.
Atleast that's what I the easiest.)

[Verse]
F  C  Dm  Bb 

(The most emphasized instrument during the verse and chorus is the bass, which goes like)

       F            C            Dm           Bb
G|------------|------------|------------|------------|
D|--------7---|------------|------------|------8---8-|
A|8---------8-|7-------7-8-|5-------7-8-|------------| (And back to the F again)
E|------8-----|------8-----|------------|6---6---6---|

e|-----|
B|--5--|
G|--5--|
D|--5--|
A|--7--|
E|-----|

(When you incorporate the bass line in your chord progression it should look something 
this)

        F            C            Dm           Bb
e|------------|------------|------------|---6---6---6|
B|---10-------|---5--------|---6--------|---6---6---6|
G|---10-------|---5--------|---7--------|---7---7---7|
D|---10---7---|---5--------|---7--------|---8---8---8|
A|8--x------8-|7--x----7-8-|5--x----7-8-|------------| (And back to the F again)
E|------8-----|------8-----|------------|6----6---6--|

[Chorus]
F  C  Dm  Bb 
[Keyboard solo]
e|12-------------10------------------------------------------------------|
B|-------13--10------------------------13--15-13-------------------13--15|
G|--------------------pb14r12p10-12s14-------------pb14r12p10-12s14------|
D|-----------------------------------------------------------------------|
A|-----------------------------------------------------------------------|
E|-----------------------------------------------------------------------|

e|-----------13--13s15-13-----------------------------|
B|-13--13h15------------------------------------------|
G|----------------------------------------------------|
D|----------------------------------------------------|
A|----------------------------------------------------|
E|----------------------------------------------------|


************************************

| h   Hammer-on
| p   Pull-off
| x   Dead note
| r   Release
| pb  Pre-bend

************************************

            
            
Suggest correction
Creating personal tab
Creating personal tab
You can edit any tab online and save it as your Personal.

You can edit, replace or remove any tab part or add personal notes – all changes will be seen only by you.

Personal tabs can be accessed anytime from any device, even offline.
Learn more »
comments
print report bad tab
guest
You may want to rate the tab now too:
select rating
Wanna post a correction for this tab? Suggest correction