Oops, an error
Loading. Please wait.

10 Am Automatic Tab

version 1
version 1

Whole song

Interactive

97,761 views 93 this week
7 commentsread comments
1 2 3 4 5
x 32
add to favorites
×
Save as Personal and add changes to this tab that will be seen only by you. Learn more ›
launch autoscroll
font size
0
reset
how to read this tab
guitar tuner
Autoscroll
slow
fast
+/-
esc
set tempo
stop
10 Am Automatic - Black Keys
Tabbed by: Tom Porter
Email:tomporter666@hotmail.com
Tuning: Standard EADGBE

[Intro]
          Fill
e|------|----- |------------|
B|------|----- |--1-1--1-1--|
G|4-4-4-|----- |--2-2--0-0--|(x4)  on 3rd time play Fill A
D|5-5-5-|----- |--3-3--2-2--|      on 4th time play Fill B 
A|5-5-5-|----- |--3-3--3-3--|
E|3-3-3-|----- |------------|

Fill A          Fill B
e|-------|      e|-------|
B|-------|      B|-------|
G|4b5~~--|      G|-/10/12|
D|-------|      D|-/10/12|
A|-------|      A|-------|
E|-------|      E|-------|

[Verse]
          Fill
e|------|----- |------------|
B|------|----- |--1-1--1-1--|
G|4-4-4-|----- |--2-2--0-0--|(x8)on 4th time play Fill A
D|5-5-5-|x-x-x |--3-3--2-2--|    
A|5-5-5-|x-x-x |--3-3--3-3--|
E|3-3-3-|x-x-x |------------|

[Chorus]
e|-------------------------------------|
B|-------------------------------------|
G|-------------------------------------|
D|-------------------------------------| x 3
A|-----xx--1-33-xx-1-33-1-33------xx---|
E|1-33-xx-------xx-----------1-33-xx---|

[Fill A]

[Preverse]
          Fill
e|------|----- |------------|
B|------|----- |--1-1--1-1--|
G|4-4-4-|----- |--2-2--0-0--|(x4)Play Fill A on 1st,2nd & 4th timethrough
D|5-5-5-|x-x-x |--3-3--2-2--|    Play Fill B on 3rd time through
A|5-5-5-|x-x-x |--3-3--3-3--|
E|3-3-3-|x-x-x |------------|

[Verse]
[Chorus]                        
        Fill2                        Fill1      
e|-----|---|------------------------|----|
B|-----|---|------------------------|----|
G|-----|---|------------------------|----|x 3 Play Fill C in fill1 1st time around
D|-----|---|------------------------|----|    Play Fill D in fill2 2nd time around
A|-----|xx-|-1-33-xx-1-33-1-33------|xx--|
E|1-33-|xx-|------xx-----------1-33-|xx--|

Fill B          Fill D
e|-------|      e|-------|
B|-------|      B|-------|
G|4b6r4--|      G|5b7r5-3|
D|-------|      D|-------|
A|-------|      A|-------|
E|-------|      E|-------|

[Fill A]

[Solo]
e|------------------------------------------6-8-8b9r8-6---6----6-------------|
B|--------------------------------6~~---6-8-------------8--8-6---8---6-8-----|
G|-/7~~-5---5-7-5--------/5--/5-7----------------------------------4-5-7-----|
D|--------8-------8-5~~------------------------------------------------------|
A|---------------------------------------------------------------------------|
E|---------------------------------------------------------------------------|

************************************

| b  Bend
| /  Slide up
| ~  Vibrato
| x  Dead note
| r  Release

************************************
Suggest correction
comments
print report bad tab
7 comments total. Showing first comments.
0 reply
djjiles 61 Feb 09, 2007 02:48 AM

This is great!! i wish i could find the solo though :s

0 reply
sikk_nick 321 Jun 24, 2007 11:21 AM

is this the same as the live version?

0 reply
biohazardist 81 Mar 04, 2008 12:29 PM

very confusing, but cool.

guest
You may want to rate the tab now too:
select rating
Wanna post a correction for this tab? Suggest correction