Oops, an error
Loading. Please wait.

Act Nice And Gentle Tab

version 3
version 3

Whole song

1,239 views 21 this week
no commentswrite comment
1 2 3 4 5
please rate
add to favorites
launch autoscroll
font size
0
reset
how to read this tab
guitar tuner
Tab Pro tools
  • play this tab
  • loop segment
  • change instrument
  • show fretboard
  • metronome
×
Best way to learn
"Act Nice And Gentle"
Autoscroll
slow
fast
+/-
esc
set tempo
stop
Contributor
Difficulty
intermediate
THE BLACK KEYS

Act Nice and Gentle

Transcribed by Danleary

Key

 b : Bend
 r : Release
 / : Slide into
 \ : Slide out of
 h : Hammer on
 p : Pull off
(-): Ghost note
 ~ : Vibrato
 x : Mute
 U : Up stroke
 D : Down stroke
 T : Fret with thumb
 . : Staccato 

___________________________________________________________

Standard Tuning
___________________________________________________________

Intro

Delta fingerstyle using thumb and index. 

 E
                       
e|--------------0----0----------|--------------0----0----------|
B|---------0h2-----2p0----0-----|---------0h2-----2p0----0-----|
G|-----0h1----------------------|-----0h1----------------------|
D|---2-------2-----2------------|---2-------2-----2------------|
A|------------------------------|------------------------------|
E|0------0------0------0----3b--|0------0------0------0----3b--|

______________________________________________________________ 

Verse

very slightly different than the intro.

e|--------------0----0--------|--------------0----0-------|
B|-------0-2-------2----------|-------0-2----0--2-0--2p0--|
G|---0h1----------------------|---0h1---------------------|
D|---2-------2-----2----------|---2-------2-----2------2--|
A|----------------------------|---------------------------|
E|0------0------0------0--3^--|0------0------0------0-----|
    Where'd you get...                 goodness knows...


e|--2--2-----2-----2p0---0--|---------------|
B|--2--2-----2-----2p0-2-0--|---------------|
G|--------------------------|---------------|
D|--------------------------|---------------|
A|0----0--0--0--0--0--------|---------------|
E|--------------------------|---------------|
    Just show...


e|2--2----2--2--2-0---0--|---------------|
B|0--0----0--0--0---2----|---------------|
G|2--2----2--2--2--------|---------------|
D|1--1----1--1--1--------|---------------|
A|2--2----2--2--2--------|---------------|
E|-----------------------|---------------|
  Act nice... 

______________________________________________________________ 

Chorus 

It looks a bit strange, but it's really just an 
A barre chord with the thumb on the bass note, and an A6 
when using that pinky on the 7th fret. 

e|5-----5---------|5---5-5---------|
B|7-----5---------|7---7-5---------|
G|----------6-----|----------6-----|
D|------------7---|------------7---|
A|----------------|----------------|
E|5-----5---------|5---5---5-------|


e|5-----5---------|5---5---5-------|
B|7-----5---------|7---7---5-------|
G|----------6-----|----------6-----|
D|------------7---|------------7\--|
A|----------------|----------------|
E|5-----5---------|5---5---5-------|
                   false eye lashes...

____________________________________________________________________

And that's the gist of it, with some minor variation here and there.
The outro is basically just a slowed down intro, with some 
embellishments round the E major chord.

comments
We did not receive enough feedback on this tab! Please rate:
print report bad tab
1 2 3 4 5
I want to post or [tab]
guest
You may want to rate the tab now too:
select rating
Please do not post tabs as comments. Select "correction" instead!