Oops, an error
Loading. Please wait.

Aeroplane Blues Tab

version 1
version 1

Whole song

Interactive

19,739 views 6 this week
2 commentsread comments
1 2 3 4 5
accurate
x 11
add to favorites
launch autoscroll
font size
0
reset
how to read this tab
guitar tuner
Tab Pro tools
  • play this tab
  • loop segment
  • change instrument
  • show fretboard
  • metronome
×
Best way to learn
"Aeroplane Blues"
Autoscroll
slow
fast
+/-
esc
set tempo
stop
This is my first tab ever. Please give me some information if something is wrong or
something could be done better...

Riff A
E  |--------------------------|Chorus
B  |--------------------------|
G  |---------------------5----|
D  |-7-7-5-7-7-5-7-7-5-7-5----|
A  |-7-7-5-7-7-5-7-7-5-7-3----|
E  |-5-5-3-5-5-3-5-5-3-5------|


Riff B

E  |--------------------------|palm muted
B  |--------------------------|
G  |--------------------------|
D  |--------------------------|
A  |---------------------3----|
E  |-5-5-3-5-5-3-5-5-3-5------|

Riff C

E  |---------|Bridge
B  |---------|
G  |---------|
D  |---------|
A  |---------|
E  |-5-3-2-3-|


Riff A 2x
Riff B 4x
Riff C 1x
Riff A 2x
Riff B 4x
Riff A 4x
Riff B 4x but sometimes different from the original.
Riff C until the song is over... 

you can do the solo on your own. improve yourself. I play it different every time.
that`s why it`s a solo! ^^

If you got any questions write an e-mail to: fuct-online@gmx.de
And sorry for my bad english!
comments
print report bad tab
2 comments total.
0 reply
JAMENA1000 wrote on August 28 2012, 03:38 pm

I play the intro like this:

e|---------------------|
B|---------------------|
G|---------------------|
D|-7-7-5-7-5-7-7-5-7-10|
A|-7-7-5-7-5-7-7-5-7-10|
E|-5-5-3-5-3-5-5-3-5-8-|

0 reply
Frenchys wrote on October 12 2013, 11:08 pm

same thing bro ;)

I want to post or [tab]
guest
You may want to rate the tab now too:
select rating
Please do not post tabs as comments. Select "correction" instead!