Oops, an error
Loading. Please wait.

All Hands Against His Own Tab

version 1
version 1

Intro

Whole song

Interactive

19,066 views 3 this week
2 commentsread comments
1 2 3 4 5
accurate
x 8
add to favorites
launch autoscroll
font size
0
reset
how to read this tab
guitar tuner
Tab Pro tools
  • play this tab
  • loop segment
  • change instrument
  • show fretboard
  • metronome
Autoscroll
slow
fast
+/-
esc
set tempo
stop
Difficulty
intermediate
Artist-Black Keys
Song-All Hands Against His Own
Album-Rubber Factory
Tuning-Standard

This a sweet song of the Black Keys album Rubber Factory, Im not sure how accurate it is but it sounds good.

e|-------------------------------------------------------+
b|-------------------------------------------------------+
g|--------------------6-44/6----------------------6-44/6-+ 
d|--------------------7-55/7-------------------7--7-55/7-+
a|-0-3-5-5/7-3-5-7----7-55/7-0-3-5-7\5-5-3-5-7----7-55/7-+
E|-----------------5--5-33/5----------------------5-33/5-+

                  **** Repeat Twice ****

- That's all i've got at the moment but it still sounds awesome and it's fun as to play.
comments
print report bad tab
2 comments total.
+1 reply
dannyboy122 wrote on July 10 2009, 11:04 am

i think its missing an extra not, it doesnt sound right just playing it the way its shown. i think its more like...

e|-------------------------------------------------------+
b|-------------------------------------------------------+
g|------------------------6-44/6----------------------6-44/6-+
d|------------------------7-55/7-------------------7--7-55/7-+
a|-0-3-5-5/7-(5)-3-5-7----7-55/7-0-3-5-7\5-5-3-5-7----7-55/7-+
E|---------------------5--5-33/5----------------------5-33/5-+

0 reply
monkeylover97 wrote on June 6 2012, 09:13 pm

its easier to play if you use the blues scale and go across the neck.

I want to post or [tab]
guest
You may want to rate the tab now too:
select rating
Please do not post tabs as comments. Select "correction" instead!