Oops, an error
Loading. Please wait.

Brooklyn Bound Tab

version 1
version 1

Whole song

18,458 views 9 this week
1 commentread comment
1 2 3 4 5
accurate
x 6
add to favorites
launch autoscroll
font size
0
reset
how to read this tab
guitar tuner
Tab Pro tools
  • play this tab
  • loop segment
  • change instrument
  • show fretboard
  • metronome
Autoscroll
slow
fast
+/-
esc
set tempo
stop
Contributor
Drop D tuning.

/ = slide
~ = vibrato
^ = bend
h = hammer on
p = pull off
t = thumb

E  :--------------------------------------------------------------------|
B  :--------------------------------------------------------------------|
G  :-------------------------------------------------/-/-7--------------|
D  :------------------------b7--5-3--------5-----3----------------b7--5-|
A  :--------------------------------5-3---------------------------------|
D  :------------------------------------5-----3----0--------------------|


E  :---------------------------------------------|
B  :---------------------------------------------|
G  :---------------------------------------------|
D  :3--------5-----3------//5-^-----5-----3------|
A  :--5-3----------------------------------------|
D  :------5-----3----0----------5-----3----0-----|


Taken from:http://bktabs.xtracrispy.com/tabs.php
comments
print report bad tab
1 comment total.
0 reply
TheWhiteKeys wrote on March 16 2010, 08:57 pm

E :-------------------------------------------------
B :----------------6-----6-----6s8---6--------------
G :----2---5----7-----7-----7-----------7----5s7----
D :----------------------------------------7--------
A :-------------------------------------------------
D :-------------------------------------------------

the fill is this and slight variations of this

I want to post or [tab]
guest
You may want to rate the tab now too:
select rating
Please do not post tabs as comments. Select "correction" instead!