Oops, an error
Loading. Please wait.

Desprate Man Tab

4,442 views 1 this week
no commentswrite comment
1 2 3 4 5
please rate
add to favorites
launch autoscroll
font size
0
reset
how to read this tab
guitar tuner
Tab Pro tools
  • play this tab
  • loop segment
  • change instrument
  • show fretboard
  • metronome
×
Best way to learn
"Desprate Man"
Autoscroll
slow
fast
+/-
esc
set tempo
stop
Contributor
one the * parts use a metal slide.
This isnt the whole song, i'm just adding more than i've seen on other versions.

key:
s\___slide
b____bend
*____metal slide
p____pull off
t____play w/ thumb

   G           G  use slide    G might be a G7, try it!
 t           t     ~~~~~~~~
---3-----------3--------------             -3--           ---|
---3-----------3--------------             -3--           ---|
---4-----------4--------------             -4--or just G5 ---|
---5-----3-----5--*3p0-3s\5*--             -3--           -5-|
---5-3s\5------5--------------             -5--           -5-|
-3-3---------3-3--------------             -3--           -3-|

then while he sings he just plays that 1st lick (hammered on):
---3-------------3---------------------------|
---3-------------3---------------------------|
---4-------------4---------------------------|
---5-------3-----5------3--------------------|
---5--3h5--------5-3h5-----------------------|
-3-3-----------3-3---------------------------|
repeat till he stops singing then do the second part of the intro:

---3------------|
---3------------|
---4------------|
---5------------|
---5-*3p0-3s\5*-|
-3-3------------|

then:

-----3--------------6b-------------------|
-----3--6b-------------------------------|
-----4-------(0)-5-----------------------|the (0)'s are very faint,
-(0)-5-------(0)-5-----------------------|more of a pause really.
-(0)-5-------(0)-3-----------------------|
-(0)-3-----------------------------------|

~you could play 11 on the B string instead of the 6, but Dan doesn't.

I just came back in to edit this after watching the DVD.
-the begining he plays the bass sounding G with his thumb and its more like:
  t
 ---3----------------------|
 ---3----------------------|
 ---4-----3----------------|etc.
 ---5-3h5------------------|
 -3------------------------|
comments
We did not receive enough feedback on this tab! Please rate:
print report bad tab
1 2 3 4 5
I want to post or [tab]
guest
You may want to rate the tab now too:
select rating
Please do not post tabs as comments. Select "correction" instead!