Oops, an error
Loading. Please wait.

Everlasting Light Chords

version 1
version 1

Whole song

109,537 views 141 this week
no commentswrite comment
1 2 3 4 5
accurate
x 7
add to favorites
launch autoscroll
font size
0
reset
transpose
0
reset
simplify chords
display chords
guitar tuner
Tab Pro tools
  • play this tab
  • loop segment
  • change instrument
  • show fretboard
  • metronome
×
Best way to learn
"Everlasting Light"
Autoscroll
slow
fast
+/-
esc
set tempo
stop
Contributor
-------------------------------------------------------------------------------
                             Everlasting Light - Black Keys
-------------------------------------------------------------------------------
Tabbed by: Jeff
Email:


groove
  E                             C#m            E  

e|--------------------------------------------------------------------------|
B|--------------------------------------------------------------------------|
G|--------------------------------------------------------------------------|
D|--------------------14-----14----------------------------------14-----14--|
A|--------------------------------------------------------------------------|
E|-12-12-12-12-12-12-----12------9-9-9-9-9-9---12-12-12-12-12-12-----12-----|

e|-------------------------------|
B|-------------------------------|
G|-------------------------------|   repeat
D|--------------------14-----14--|
A|-------------------------------|
E|-12-12-12-12-12-12-----12------|

E              C#m         E
Let me be your everlasting light
             C#m      E
The sun when there is none
I'm a Shepard for you
         C#m
And I'll guide you through
       E       C#m         E      E/F#
Let me be your everlasting light


       E       C#m         E
Let me be your everlasting light
              C#m     E
I'll hold and never scold
In me you can confide
     C#m
When no ones by your side
  E            C#m         E
Let me be your everlasting light


F#m      E
Oh baby, cant you see?
F#m              E
I'm shining just for you
F#m           E
Loneliness is over
A    A AM7    F#m
Dark days are through
Theyre through

Let me be your everlasting light
A train going away from pain
Love is the coal
That makes this train roll
Let me be your everlasting light

Let me be your everlasting light

Let me be your everlasting light

Be your everlasting light




************************************

| /   slide up
| \   slide down
| h   hammer-on
| p   pull-off
| ~   vibrato
| +   harmonic
| x   Mute note
| b   Bend
| pb  Pre-bend
| br  Bend release
| pbr Pre-bend release
| brb Bend release bend

************************************
comments
print report bad tab
I want to post or [tab]
guest
You may want to rate the tab now too:
select rating
Please do not post tabs as comments. Select "correction" instead!