Oops, an error
Loading. Please wait.

Fever Tab

version 1
version 1

Whole song

Interactive

18,116 views 45 this week
no commentswrite comment
1 2 3 4 5
accurate
x 9
add to favorites
launch autoscroll
font size
0
reset
how to read this tab
guitar tuner
Tab Pro tools
  • play this tab
  • loop segment
  • change instrument
  • show fretboard
  • metronome
Autoscroll
slow
fast
+/-
esc
set tempo
stop
Contributor
-------------------------------------------------------------------------------
                             FEVER - The Black Keys
-------------------------------------------------------------------------------
Tabbed by: tele.kom

Tuning: eBGDAE

My YouTube lesson: https://www.youtube.com/watch?v=n8V0ybbcpLg

Intro

e|-----------------------------------------------------------------------------------|
B|-----------------------------------------------------------------------------------|
G|--10-10-10-10-10-10-10-10-10-10-10-10-10-10-10-10--5-5-5-5-5-5-5-5-5-5-5-5-5-5-5-5-|
D|-/12-12-12-12-12-12-12-12-12-12-12-12-12-12-12-12--7-7-7-7-7-7-7-7-7-7-7-7-7-7-7-7-|
A|-----------------------------------------------------------------------------------|
E|-----------------------------------------------------------------------------------|

Intro/Chorus
e|---------------------------------------------------------------------------------|
B|---------------------------------------------------------------------------------|
G|-9--9--9--9--9--9--9--9--9--9--9--9--9--9--9--9---5-5-5-5-5-5-5-5-5-5-5-5-5-5-5--|
D|-10-10-10-10-10-10-10-10-10-10-10-10-10-10-10-10--7-7-7-7-7-7-7-7-7-7-7-7-7-7-7--|
A|---------------------------------------------------------------------------------|
E|---------------------------------------------------------------------------------|

e|-----------------------------------------------------------------------------|
B|-----------------------------------------------------------------------------|
G|-10-10-10-10-10-10-10-10-10-10-10-10-10-10-10--5-5-5-5-5-5-5-5-5-5-5-5-5-5-5-|
D|-12-12-12-12-12-12-12-12-12-12-12-12-12-12-12--7-7-7-7-7-7-7-7-7-7-7-7-7-7-7-|
A|-----------------------------------------------------------------------------|
E|-----------------------------------------------------------------------------|

Verse (0:46 - 1:00 ; 1:54 - 2:08)

e|-----------------------------------------------------|
B|-5--5--5--5--5--5--5--5--10--10--10--10--5--5--5--5--|
G|-5--5--5--5--5--5--5--5--10--10--10--10--5--5--5--5--|
D|-7--7--7--7--5--5--5--5--12--12--12--12--7--7--7--7--|
A|-----------------------------------------------------|
E|-----------------------------------------------------|

Breakdown (02:39 - 3:24)

e|--------------------------------------------------------------------|
B|--------------------------------------------------------------------|
G|-5-5-5-5-5-5-5-5--5-5-5-5-5-5-5-5-5-5-5-5-5-5-5--5-5-5-5-5-5-5------|
D|-7-7-7-7-7-7-7-5--5-5-5-5-5-5-5-7-7-7-7-7-7-7-5--5-5-5-5-5-5-5------|
A|--------------------------------------------------------------------|
E|--------------------------------------------------------------------|

e|------------------------------------------------------------------------------------------------|
B|------------------------------------------------------------------------------------------------|
G|-12-12-12-12-12-12-12-12-12--12-12-12-12-12-12-12-10-10-10-10-10-10-10-10--10-10-10-10-10-10-10-|
D|-14-14-14-14-14-14-14-14-12--12-12-12-12-12-12-12-12-12-12-12-12-12-12-10--10-10-10-10-10-10-10-|
A|------------------------------------------------------------------------------------------------|
E|------------------------------------------------------------------------------------------------|

Solo Lead (3:25 - 3:56)

e|--------------------------------------------------------------------|
B|-------------5---5-------------------------------5---5-8-5v----5----|
G|-----5---7v----7-------5---7v--7-5-7-----5---7v----7-------------7v-|
D|-5-7---7-----------5-7---7-----------5-7---7-----------------7------|
A|--------------------------------------------------------------------|
E|--------------------------------------------------------------------|

Solo Rhythm (3:25 - 3:56)

e|-------------------------------------------------------------------------|
B|-------------------------------------------------------------------------|
G|-5-5-5-5-5-5-5-5-5-5-5-5-5-5-5-10-10-10-10-10-10-10-10-10-10-10-10-10-10-|
D|-7-7-7-7-7-7-7-5-5-5-5-5-5-5-5-12-12-12-12-12-12-12-10-10-10-10-10-10-10-|
A|-------------------------------------------------------------------------|
E|-------------------------------------------------------------------------|

Outro (3:57)

e|------------------|
B|------------------|
G|-12----10----5----|
D|-14----12----7----|
A|------------------|
E|------------------|
comments
print report bad tab
I want to post or [tab]
guest
You may want to rate the tab now too:
select rating
Please do not post tabs as comments. Select "correction" instead!