Oops, an error
Loading. Please wait.

Funk 49 Tab

2,064 views 3 this week
1 commentread comment
1 2 3 4 5
excellent!
x 3
add to favorites
launch autoscroll
font size
0
reset
how to read this tab
guitar tuner
Tab Pro tools
  • play this tab
  • loop segment
  • change instrument
  • show fretboard
  • metronome
×
Best way to learn
"Funk 49"
Autoscroll
slow
fast
+/-
esc
set tempo
stop
Contributor
                                  ~~~~~~~~~~~~~~~~~~~~~~~~~~~~~~~~~~~~~~~~
                                                 Funk #49      
                                              The Black Keys
                                                 Rare Ones 
                                  ~~~~~~~~~~~~~~~~~~~~~~~~~~~~~~~~~~~~~~~~
Tabbed by: Connor O.
Tuning: Standard

Played in the B-minor pentatonic


Atypical to Dan's style, but true to the original, there's no bass-line played.
This makes it a little bit harder to time everything out accordingly, but I went
through and made sure all the notes are in correct realation to each other 
chronologically. That is, except for the slide parts in the 1:21 box. I had
to squish those together a bit. The spaces in-between the slides were too big.

Comment or message any ideas or corrections. Please rate my tab.



Key:
where # represents a fret number

#h# - hammer
#p# - pull
/ \ - slides, up and down respectively.
#b# - bend from normal note up to achieve bended note.
#r# - release bend from bended note to normal note.
#b  - a slight bend a.k.a. a curl.
=== - under boxes, represents the use of a guitar slide.
 x  - mute string(s)
 &  - substitution. note that & is substituting for is shown 
      to the right of the chord box.
 $  - after a bend symbol. $ symbolizes the action of
      playing a bended string. First # is the fret bended 
      from and second # is the note bended to and played.



Intro:


  0:02
    
e|----------------10---------------------------------------------------|
B|-10b12-12----12----12----10b12---------------------------------------|
G|----------11----------11-------11-11-9b11-$-pb9-7---9b11-$-pb9-7-----|
D|--------------------------------------------------9--------------9---|
A|---------------------------------------------------------------------|
E|---------------------------------------------------------------------|



Bridge:


  0:08
                                                        Hey!
e|-----x---x-x---x-----------------------------x------------------|
B|-----x---x-x---x-----------------------------x------------------|
G|-7h8-x---x-x---x-9-7h8-----7h9---9---9-9-7h8-x---7b9------------|
D|-7---x---x-x---x-9-7---7h9-7h9---9---9-9-7---x------------------|
A|-----x---x-x---x-----------------------------x------------------|
E|-----x---x-x---x-----------------------------x------------------|


  0:14 

e|-----x---x-x---x-----------------------------x-x-x-x-x----------|
B|-----x---x-x---x-----------------------------x-x-x-x-x----------|
G|-7h8-x---x-x---x-9-7h8-----7h9---9---9-9-7h8-x-x-x-x-x----------|
D|-7---x---x-x---x-9-7---7h9-7h9---9---9-9-7---x-x-x-x-x----------|
A|-----x---x-x---x-----------------------------x-x-x-x-x----------|
E|-----x---x-x---x-----------------------------x-x-x-x-x----------|



Verse 1:


  0:19
  Sleep all day, out all night, I know where you're goin'
  I don't think that's actin' right, you don't think it's showin'
e|----------------------------------------------------------------|
B|----------------------------------------------------------------|
G|---------------------------------9-9-----9----------------------| X2
D|-9-9-----9-------9-9---9---9-7---9-9-----9----------------------|
A|-9-9-----9-------9-9---9---9-7---7-7-----7-------5h7-5b---------|
E|-7-7-----7-------7-7---7---7-7---7-7-----7----------------------|


  0:30

e|----------------------------------------------------------------|
B|----------------------------------------------------------------|
G|----------------------------------------------------------------|
D|-9-7-----------------x---9------9-7---------------x-x-x-x-x-----|
A|-----9-7---5---------x---9----------9-7---5-------x-x-x-x-x-----|
E|---------------5/7---x---7--------------------5/7-x-x-x-x-x-----|


  0:36

e|----------------------------------------------------------------|
B|----------------------------------------------------------------|
G|----------------------------------------------------------------|
D|-11-9-----------------x-x-11------11-9----------------x---9---x-|
A|------11-9---7--------x-x-11-----------11-9---7-------x---9---x-|
E|-----------------7/9--x-x--9----------------------7/9-x---9---x-|



Bridge:


  0:41
                                                        
e|-----x---x-x---x-----------------------------x-x----------------|
B|-----x---x-x---x-----------------------------x-x----------------|
G|-7h8-x---x-x---x-9-7h8-----7h9---9---9-9-7h8-x-x-7b9------------|
D|-7---x---x-x---x-9-7---7h9-7h9---9---9-9-7---x-x----------------|
A|-----x---x-x---x-----------------------------x-x----------------|
E|-----x---x-x---x-----------------------------x-x----------------|


  0:47
 
e|-----x---x-x-x-x-----------------------------x-x-x-x-7----------|
B|-----x---x-x-x-x-----------------------------x-x-x-x-10---------|
G|-7h8-x---x-x-x-x-9-7h8-----7h9---9---9-9-7h8-x-x-x-x-8----------|
D|-7---x---x-x-x-x-9-7---7h9-7h9---9---9-9-7---x-x-x-x-7----------|
A|-----x---x-x-x-x-----------------------------x-x-x-x-9----------|
E|-----x---x-x-x-x-----------------------------x-x-x-x-7----------|
                                                       ! - B7 chord


Verse 2:


  0:52
  Jumpin' up, fallin' down, don't misunderstand me
e|----------------------------------------------------------------|
B|----------------------------------------------------------------|
G|---------------------------------9------------------------------| 
D|-9-9-----9-------9-9---9---9-7---9------------------------------|
A|-9-9-----9-------9-9---9---9-7---7---------------5h7-5b---------|
E|-7-7-----7-------7-7---7---7-7---7------------------------------|
                                   ! - let ring

  0:58
  You don't think I know your plan, what you tryin' to hand me
e|----------------------------------------------------------------|
B|----------------------------------------------------------------|
G|---------------------------------9-9-----9----------------------| 
D|-9-9-----9-------9-9---9---9-7---9-9-----9----------------------|
A|-9-9-----9-------9-9---9---9-7---7-7-----7-------5h7-5b---------|
E|-7-7-----7-------7-7---7---7-7---7-7-----7----------------------|

    
  1:03

e|----------------------------------------------------------------|
B|----------------------------------------------------------------|
G|----------------------------------------------------------------|
D|-9-7-----------------x---9------9-7---------------x-x-x-x-x-----|
A|-----9-7---5---------x---9----------9-7---5-------x-x-x-x-x-----|
E|---------------5/7---x---7--------------------5/7-x-x-x-x-x-----|


  1:09

e|----------------------------------------------------------------|
B|----------------------------------------------------------------|
G|------------------------------------------------------9---------|
D|-11-9------------------x--11------11-9----------------9---------|
A|------11-9---7---------x--11-----------11-9---7-------7---------|
E|-----------------7/9---x---9----------------------7/9-7---------|
                                                        


Solo:


  1:15

e|----------------------------------------------------------------|
B|----------------------------------------------------------------|
G|--------------------------------------------7-------------------|
D|-9---9---7---7---9----------9-7---9-7---7-----------------------|
A|-----------5--------------9-----------9---------5b7-------------|
E|----------------------------------------------------------------|


  1:21

e|----------------------------------------------------------------|
B|----------------------------------------------------------------|
G|-----------------------------7/9---------9/11---7-7/9-----------|
D|-----------------------7/9-------9\7---9--------------9---------|
A|-----5---5h7---5---------------------9--------------------------|
E|-5h7---------------7--------------------------------------------|
                         ================================

  1:30

e|----------------------------------------------------------------|
B|------12--------12--------12----12------------------------------|
G|-9/11------9/11------9/11----11----11-9/11-9/11-11\7------------|
D|----------------------------------------------------------------|
A|----------------------------------------------------------------|
E|----------------------------------------------------------------|
   ===================================================


Verse 3:


  1:36
  Out all night, sleep all day, I know what you're doin'
e|----------------------------------------------------------------|
B|----------------------------------------------------------------|
G|---------------------------------9------------------------------| 
D|-9-9-----9-------9-9---9---9-7---9------------------------------|
A|-9-9-----9-------9-9---9---9-7---7---------------5h7-5b---------|
E|-7-7-----7-------7-7---7---7-7---7------------------------------|
                                   

  1:41
  If you're gonna act that way, there's trouble brewin'
e|----------------------------------------------------------------|
B|----------------------------------------------------------------|
G|---------------------------------9-9-----9----------------------| 
D|-9-9-----9-------9-9---9---9-7---9-9-----9----------------------|
A|-9-9-----9-------9-9---9---9-7---7-7-----7-------5h7-5b---------|
E|-7-7-----7-------7-7---7---7-7---7-7-----7----------------------|

    
  1:46

e|----------------------------------------------------------------|
B|----------------------------------------------------------------|
G|----------------------------------------------------------------|
D|-9-7-----------------x---9------9-7---------------x-x-x-x-x-----| 
A|-----9-7---5---------x---9----------9-7---5-------x-x-x-x-x-----|
E|---------------5/7---x---7--------------------5/7-x-x-x-x-x-----|


  1:52

e|----------------------------------------------------------------|
B|----------------------------------------------------------------|
G|----------------------------------------------------------------|
D|-9-7----------------x-x--9------9-7---------------x-x-x-x-x-----| 
A|-----9-7---5--------x-x--9----------9-7---5-------x-x-x-x-x-----|
E|---------------5/7--x-x--7--------------------5/7-x-x-x-x-x-----|


  1:57

e|----------------------------------------------------------------|
B|----------------------------------------------------------------|
G|------------------------------------------------------x-x-x-x-x-|
D|-11-9-----------------x-x-11------11-9----------------x-x-x-x-x-| 
A|------11-9---7--------x-x-11-----------11-9---7-------x-x-x-x-x-|
E|-----------------7/9--x-x--9----------------------7/9-x-x-x-x-x-|


  2:03

e|----------------------------------------------------------------|
B|----------------------------------------------------------------|
G|------------------------------------------------------x---9-----|
D|-11-9-----------------x-x-11------11-9----------------x---9-----| 
A|------11-9---7--------x-x-11-----------11-9---7-------x---7-----|
E|-----------------7/9--x-x--9----------------------7/9-x---7-----|



Outro:


  2:08

e|-----x---x-x-x-x-----------------------------x-x-x-x-x-x--------|
B|-----x---x-x-x-x-----------------------------x-x-x-x-x-x--------|
G|-7h8-x---x-x-x-x-9-7h8-----7h9---9---9-9-7h8-x-x-x-x-x-x--------|  X3
D|-7---x---x-x-x-x-9-7---7h9-7h9---9---9-9-7---x-x-x-x-x-x--------|
A|-----x---x-x-x-x-----------------------------x-x-x-x-x-x--------|
E|-----x---x-x-x-x-----------------------------x-x-x-x-x-x--------|

  
  2:24

e|-----x---x-x-x-x-----------------------------x-x-7-7-7----------|
B|-----x---x-x-x-x-----------------------------x-x-7-7-&----------|
G|-7h8-x---x-x-x-x-9-7h8-----7h9---9---9-9-7h8-x-x-8-8-8----------| & = 10
D|-7---x---x-x-x-x-9-7---7h9-7h9---9---9-9-7---x-x-7-7-7----------|
A|-----x---x-x-x-x-----------------------------x-x-9-9-9----------|
E|-----x---x-x-x-x-----------------------------x-x-7-7-7----------|
                                                       ! - B7 chord
comments
We did not receive enough feedback on this tab! Please rate:
print report bad tab
1 2 3 4 5
1 comment total.
0 reply
yulizavala22 wrote on April 16 2014, 12:13 pm

Never knew they made this song, makes me think what other hidden songs they have. Thanks for the tab!

I want to post or [tab]
guest
You may want to rate the tab now too:
select rating
Please do not post tabs as comments. Select "correction" instead!