Oops, an error
Loading. Please wait.

Girl Is On My Mind Tab

version 2
version 2

Whole song

Interactive

12,141 views 3 this week
1 commentread comment
1 2 3 4 5
please rate
add to favorites
launch autoscroll
font size
0
reset
how to read this tab
guitar tuner
Tab Pro tools
  • play this tab
  • loop segment
  • change instrument
  • show fretboard
  • metronome
×
Best way to learn
"Girl Is On My Mind"
Autoscroll
slow
fast
+/-
esc
set tempo
stop
Contributor
Difficulty
Capo
intermediate
2nd fret
this is the main riff it isnt too difficult, use fingers 2,3 and 4 for the initial chord 
hold that shape.

Tuning: EADGBE
Capo: 2nd Fret

-------0-------------------------------------------|
-------0-------------------------------------------|
-1-----1--------4----4------------6----------------|
-2-----2--------5----5------------7---0------------|
-2--------------5----5---0---7----7---0------------|
-0----------0---3----3---0---5----5---0---7-\---3b-|

---------------------------------------------------|
------------------------0------------------------0-|
------6-------2---2b----0--------6---------------0-|
------7---0---4---4b----0--------7---0---7---7b--0-|
-5----7---0-----------------7----7---0---6---6b----|
-7----5---0-----------------5----5---0-------------|
comments
We did not receive enough feedback on this tab! Please rate:
print report bad tab
1 2 3 4 5
1 comment total.
+2 reply
tcspinks wrote on April 28 2007, 11:03 am

I think someone reads Total Guitar

I want to post or [tab]
guest
You may want to rate the tab now too:
select rating
Please do not post tabs as comments. Select "correction" instead!