Oops, an error
Loading. Please wait.

Girl Is On My Mind tab

version 3
version 3

Whole song

Interactive

81,999 views 105 this week
7 commentsread comments
1 2 3 4 5
x 20
add to favorites
×
Save as Personal and add changes to this tab that will be seen only by you. Learn more ›
×
You can save this tab as Personal to edit and correct it or add notes. All changes will be seen only by you. Learn more »
launch autoscroll
font size
0
reset
how to read this tab
guitar tuner
edit
Autoscroll
slow
fast
+/-
esc
set tempo
stop
Author
The Black Keys - Girl Is On My Mind

Standard Tuning


[Intro]

e|-----------------------------------------------------------|
B|------5--------5-----------5----5--5-----------------------|
G|--4h6------4h6-6-------4h6-6----4--4----2------------------|
D|-------------------------------------------4p2-------------|
A|-----------------------------------------------------------|
E|-----------------------------------------------------------|


[Immediately Into]

e|---------------------------------------|
B|---------------------------------------|
G|---------------------------------------|
D|----4--x----7--x----9--x---------------|
A|----4--x----7--x----9--x---------------|
E|--2-2--x--5-5--x--7-7--x--7b(9)--5-----|

e|--------------------------------|
B|--------------------------------|
G|--------------------------------|
D|----4--x----7--x----9--x--9~----|
A|----4--x----7--x----9--x--------|
E|--2-2--x--5-5--x--7-7--x--------|

e|---------------------------------------|
B|---------------------------------------|
G|---------------------------------------|
D|----4--x----7--x----9--x---------------|      
A|----4--x----7--x----9--x---------------|
E|--2-2--x--5-5--x--7-7--x--7b(9)--5-----|(x10)

e|---------------------------------------|
B|---------------------------------------|
G|--6-6-6-6--4-4-4-4--6-6-6-6--9-9-9-9---|
D|--4-4-4-4--2-2-2-2--4-4-4-4--7-7-7-7---|
A|---------------------------------------|
E|---------------------------------------|

e|-----------------------------------|
B|-----------------------------------|
G|--6-6-6-6--4-4-4-4--6-6-6-6--9-9---|
D|--4-4-4-4--2-2-2-2--4-4-4-4--7-7---|
A|-----------------------------------|
E|-----------------------------------|

e|---------------------------------------|
B|---------------------------------------|
G|---------------------------------------|
D|----4--x----7--x----9--x---------------|      
A|----4--x----7--x----9--x---------------|
E|--2-2--x--5-5--x--7-7--x--7b(9)--5-----|(x3)

e|--------------------------------|
B|--------------------------------|
G|--------------------------------|
D|----4--x----7--x----9--x--9~----|
A|----4--x----7--x----9--x--------|
E|--2-2--x--5-5--x--7-7--x--------|

e|---------------------------------------|
B|---------------------------------------|
G|---------------------------------------|
D|----4--x----7--x----9--x---------------|      
A|----4--x----7--x----9--x---------------|
E|--2-2--x--5-5--x--7-7--x--7b(9)--5-----|(x8)

e|---------------------------------------|
B|---------------------------------------|
G|--6-6-6-6--4-4-4-4--6-6-6-6--9-9-9-9---|
D|--4-4-4-4--2-2-2-2--4-4-4-4--7-7-7-7---|
A|---------------------------------------|
E|---------------------------------------|

e|-----------------------------------|
B|-----------------------------------|
G|--6-6-6-6--4-4-4-4--6-6-6-6--9-9---|
D|--4-4-4-4--2-2-2-2--4-4-4-4--7-7---|
A|-----------------------------------|
E|-----------------------------------|

Here one guitar plays the chorus riff six times:

e|---------------------------------------|
B|---------------------------------------|
G|---------------------------------------|
D|----4--x----7--x----9--x---------------|      
A|----4--x----7--x----9--x---------------|
E|--2-2--x--5-5--x--7-7--x--7b(9)--5-----|(x6)

While another plays the solo over this riff:

e|---------------------------------------|
B|---------------------------------------|
G|-------9----9h11---9-------------------|
D|--9h11---11-----------11-10-9-7///4----|
A|---------------------------------------|
E|---------------------------------------|

e|------------------------------------|
B|------------------------------------|
G|-------9----9h11---9----------------|
D|--9h11---11-----------11-10-7-9~----|
A|------------------------------------|
E|------------------------------------|

e|-----------------------------------|
B|-----------------------------------|
G|-------9-11-----9------------------|
D|--9h11------------11-10-9-7///4----|
A|-----------------------------------|
E|-----------------------------------|

e|----------------------------------------------------|
B|----------------------------------------------------|
G|-------9----9h11-------9-11--11///17--17-17-17~-----|
D|--9h11---11---------11------------------------------|
A|----------------------------------------------------|
E|----------------------------------------------------|


After this play the chorus riff till closing:
e|---------------------------------------|
B|---------------------------------------|
G|---------------------------------------|
D|----4--x----7--x----9--x---------------|
A|----4--x----7--x----9--x---------------|
E|--2-2--x--5-5--x--7-7--x--7b(9)--5-----|

This is played softer and softer as the song gets closer to the end, and a few other 
are thrown in for effect.  Just improvise and play what sounds good.



************************************

| h  Hammer-on
| p  Pull-off
| x  Dead note
| ~  Vibrato
| /  Slide up
| b  bend

************************************

            
            
Suggest correction
Creating personal tab
Creating personal tab
You can edit any tab online and save it as your Personal.

You can edit, replace or remove any tab part or add personal notes – all changes will be seen only by you.

Personal tabs can be accessed anytime from any device, even offline.
Learn more »
comments
print report bad tab
7 comments total. Showing first comments.
0 reply
REP 86 Nov 08, 2008 12:01 PM

great tab :)

0 reply
killingtime15 10 Jan 07, 2009 06:38 AM

i'm sure i sound like the biggest noob but what does ~ mean? i know all the symbols cept that one

0 reply
michaelscofield 111 Feb 15, 2009 10:05 AM

^^ Means vibrato :)

guest
You may want to rate the tab now too:
select rating
Wanna post a correction for this tab? Suggest correction