Oops, an error
Loading. Please wait.

Girl Is On My Mind Tab

version 4
version 4

Whole song

Interactive

3,009 views 6 this week
no commentswrite comment
1 2 3 4 5
accurate
x 2
add to favorites
launch autoscroll
font size
0
reset
how to read this tab
guitar tuner
Tab Pro tools
  • play this tab
  • loop segment
  • change instrument
  • show fretboard
  • metronome
Autoscroll
slow
fast
+/-
esc
set tempo
stop
Difficulty
intermediate
Live in Sydney 2005

Standard Tuning, capo on 2nd fret.
Played with the Fender Telecaster (Jerry Donahue?)
    -----------------------------------------|
    ------3----------------------------------|
    --2/4-----------2--0---0-2-0-2-----------|
    --------------------2--------------------|
    -----------------------------------------|
    -----------------------------------------|
/ Played several /
      times

Main riff:

(Palm mute 5th & 6th string on 'eyes are in my eyes')

-------0------5-------7-----------------|
-------0------5-------7-----------------|
-------1------4-------6-----------------|
-------2------5-------7-----------or-2b-|
----2----2--5----5--7-------------------|
----0----0--3----3--5----5--7/-3--------|

then:

let the 6th string ring

---14-14-14-14/12-12-12-12/14-14-14-14/17-17-17-17-|
---14-14-14-14/12-12-12-12/14-14-14-14/17-17-17-17-|
---------------------------------------------------|
---------------------------------------------------|
---------------------------------------------------|
0~~~-----------------------------------------------|
comments
We did not receive enough feedback on this tab! Please rate:
print report bad tab
1 2 3 4 5
I want to post or [tab]
guest
You may want to rate the tab now too:
select rating
Please do not post tabs as comments. Select "correction" instead!