Oops, an error
Loading. Please wait.
We have an official Gold On The Ceiling tab made by UG professional guitarists. Check out the tab »
×
109,006 views 60 this week
1 commentread comment
1 2 3 4 5
x 7
add to favorites
×
Save as Personal and add changes to this tab that will be seen only by you. Learn more ›
×
You can save this tab as Personal to edit and correct it or add notes. All changes will be seen only by you. Learn more »
launch autoscroll
font size
0
reset
how to read this tab
guitar tuner
backing track
0:00
0:00
edit
Autoscroll
slow
fast
+/-
esc
set tempo
stop
Author
Unregistered
This is my first tab. I did this by ear. It sounds right to me... Let me know if there 
are any mistakes...

Song: Gold On The Ceiling
Artist: The Black Keys
Album: El Camino (2011)

Tuning: Standard


[Intro]
(0:00 - 0:27)


[Intro Riff]

(0:00)
e|--------------|
B|--------------|
G|--------------|
D|--------------|
A|--------------|
E|--------------|


[Bass]

(0:06)
e|------------|
B|------------|
G|------------|
D|------------|
A|--------3-1-|
E|-3-3-3-3----|

[Riff 1] 

(0:13)
e|---------------------------------------------------------|
B|---------------------------------------------------------|
G|-12---12-10---10-------10------------10--12---12-15-12---|
D|------------12-------12---12-10----12--12----------------|
A|---------------------------------------------------------|
E|---------------------------------------------------------|

e|---------------------------------------------------------|
B|---------------------------------------------------------|
G|-12---12-10---10-------10------------10--12--------------|
D|------------12-------12---12-10----12--12----------------|
A|---------------------------------------------------------|
E|---------------------------------------------------------|


[Verse 1]
(0:28 - 0:48)

Down in the waves
She screams again
Roar at the door
My mind can't take much more
I could never drown


Pre-Chrous 
(0:49 - 1:04)


[Riff 2]

(0:49)
e|---------------------------------|
B|---------------------------------|
G|-12-12---15-15---12-12-10-12-----|
D|-12-12---15-15---12-12-10-12-----|
A|-10-10---13-13---10-10-8--10-----|
E|---------------------------------|

e|----------------------------|
B|----------------------------|
G|-12-12---15-15---10-12------|
D|-12-12---15-15---10-12------|
A|-10-10---13-13---8--10------|
E|----------------------------|

They wanna get my...

[Riff 2] 

(0:57)
e|---------------------------------|
B|---------------------------------|
G|-12-12---15-15---12-12-10-12-----|
D|-12-12---15-15---12-12-10-12-----|
A|-10-10---13-13---10-10-8--10-----|
E|---------------------------------|

e|----------------------------|
B|----------------------------|
G|-12-12---15-15---10-12------|
D|-12-12---15-15---10-12------|
A|-10-10---13-13---8--10------|
E|----------------------------|

They wanna get my...


[Chorus]
(1:05 - 1:33)

[Riff 1] 

(1:05)
e|---------------------------------------------------------|
B|---------------------------------------------------------|
G|-12---12-10---10-------10------------10--12---12-15-12---|
D|------------12-------12---12-10----12--12----------------|
A|---------------------------------------------------------|
E|---------------------------------------------------------|
   Gold on the Ceiling.... I ain't blind... Just a matter of time...

e|---------------------------------------------------------|
B|---------------------------------------------------------|
G|-12---12-10---10-------10------------10--12--------------|
D|------------12-------12---12-10----12--12----------------|
A|---------------------------------------------------------|
E|---------------------------------------------------------|
   Before you steal it... It's alright... Ain't no blood in my eye


[Solo 1]

(1:19)
e|--------------|
B|--------------|
G|--------------|
D|--------------|
A|--------------|
E|--------------|



[Verse 2]
(1:34 - 1:55)

Clouds covered love's
Barbed-wire fence
Strung up, strung out
I just can't go without
I could never drown...


[Pre-Chorus] 
(1:56 - 2:10)


[Riff 2] 

(1:56)
e|---------------------------------|
B|---------------------------------|
G|-12-12---15-15---12-12-10-12-----|
D|-12-12---15-15---12-12-10-12-----|
A|-10-10---13-13---10-10-8--10-----|
E|---------------------------------|

e|----------------------------|
B|----------------------------|
G|-12-12---15-15---10-12------|
D|-12-12---15-15---10-12------|
A|-10-10---13-13---8--10------|
E|----------------------------|

They wanna get my...


[Riff 2] 

(2:03)
e|---------------------------------|
B|---------------------------------|
G|-12-12---15-15---12-12-10-12-----|
D|-12-12---15-15---12-12-10-12-----|
A|-10-10---13-13---10-10-8--10-----|
E|---------------------------------|

e|----------------------------|
B|----------------------------|
G|-12-12---15-15---10-12------|
D|-12-12---15-15---10-12------|
A|-10-10---13-13---8--10------|
E|----------------------------|

They wanna get my...


[Chorus]
(2:11 - 2:39)


[Riff 1] 

(2:11)
e|---------------------------------------------------------|
B|---------------------------------------------------------|
G|-12---12-10---10-------10------------10--12---12-15-12---|
D|------------12-------12---12-10----12--12----------------|
A|---------------------------------------------------------|
E|---------------------------------------------------------|
   Gold on the Ceiling.... I ain't blind... Just a matter of time...

e|---------------------------------------------------------|
B|---------------------------------------------------------|
G|-12---12-10---10-------10------------10--12--------------|
D|------------12-------12---12-10----12--12----------------|
A|---------------------------------------------------------|
E|---------------------------------------------------------|
   Before you steal it... It's alright... Ain't no blood in my eye


[Solo 1]

(2:26)
e|--------------|
B|--------------|
G|--------------|
D|--------------|
A|--------------|
E|--------------|


[Pre-Chorus]
(2:40 - 2:54)


[Riff 2] 

(2:40)
e|---------------------------------|
B|---------------------------------|
G|-12-12---15-15---12-12-10-12-----|
D|-12-12---15-15---12-12-10-12-----|
A|-10-10---13-13---10-10-8--10-----|
E|---------------------------------|

e|----------------------------|
B|----------------------------|
G|-12-12---15-15---10-12------|
D|-12-12---15-15---10-12------|
A|-10-10---13-13---8--10------|
E|----------------------------|

They wanna get my...


[Riff 2] 

(2:47)
e|---------------------------------|
B|---------------------------------|
G|-12-12---15-15---12-12-10-12-----|
D|-12-12---15-15---12-12-10-12-----|
A|-10-10---13-13---10-10-8--10-----|
E|---------------------------------|

e|----------------------------|
B|----------------------------|
G|-12-12---15-15---10-12------|
D|-12-12---15-15---10-12------|
A|-10-10---13-13---8--10------|
E|----------------------------|

They wanna get my...


[Chorus]
(2:55 - 3:25)


[Riff 1] 

(2:55)
e|---------------------------------------------------------|
B|---------------------------------------------------------|
G|-12---12-10---10-------10------------10--12---12-15-12---|
D|------------12-------12---12-10----12--12----------------|
A|---------------------------------------------------------|
E|---------------------------------------------------------|
   Gold on the Ceiling.... I ain't blind... Just a matter of time...

e|---------------------------------------------------------|
B|---------------------------------------------------------|
G|-12---12-10---10-------10------------10--12--------------|
D|------------12-------12---12-10----12--12----------------|
A|---------------------------------------------------------|
E|---------------------------------------------------------|
   Before you steal it... It's alright... Ain't no blood in my eye


[Riff 1] 

(3:10)
e|---------------------------------------------------------|
B|---------------------------------------------------------|
G|-12---12-10---10-------10------------10--12---12-15-12---|
D|------------12-------12---12-10----12--12----------------|
A|---------------------------------------------------------|
E|---------------------------------------------------------|
   Gold on the Ceiling.... I ain't blind... Just a matter of time...

e|---------------------------------------------------------|
B|---------------------------------------------------------|
G|-12---12-10---10-------10------------10--12--------------|
D|------------12-------12---12-10----12--12----------------|
A|---------------------------------------------------------|
E|---------------------------------------------------------|
   Before you steal it... It's alright... Ain't no blood in my eye


[Outro]
(3:26 - 3:44)


[Bass]

(3:26)
e|------------|
B|------------|
G|------------|
D|------------|
A|--------3-1-|
E|-3-3-3-3----|


[End On] 

(3:32)
e|------|
B|------|
G|------|
D|--5---|
A|--5---|
E|--3---|

            
            
Suggest correction
Creating personal tab
Creating personal tab
You can edit any tab online and save it as your Personal.

You can edit, replace or remove any tab part or add personal notes – all changes will be seen only by you.

Personal tabs can be accessed anytime from any device, even offline.
Learn more »
comments
print report bad tab
1 comment total.
+2 reply
allfooie 104 Dec 10, 2011 02:26 AM

The parts you've done are OK, but you're obviously missing parts like the intro. I think the riffs start on 8-10-10 and not 10-12-12 and then go from there. Fairly close in the other areas..

guest
Wanna post a correction for this tab? Suggest correction