Oops, an error
Loading. Please wait.

Gold On The Ceiling Tab

version 2
version 2

Interactive

Video

80,869 views 54 this week
1 commentread comment
1 2 3 4 5
excellent!
x 13
add to favorites
launch autoscroll
font size
0
reset
how to read this tab
guitar tuner
Tab Pro tools
  • play this tab
  • loop segment
  • change instrument
  • show fretboard
  • metronome
×
Best way to learn
"Gold On The Ceiling"
Autoscroll
slow
fast
+/-
esc
set tempo
stop
Contributor
This is Gold on the Ceiling by The Black Keys.  My favorite song off of the new album, El Camino.
I'm pretty sure it's 100% correct, but if you feel otherwise let me know and I might 
makes changes to it.

Tabbed by: Kingbabyduck

Tuning: Standard

Intro Riff

e|----------------------------------------------------------------------------|
B|----------------------------------------------------------------------------|
G|----------------------------------------------------------------------------|
D|------12--------10-----12--10-----7-------5-----7--5-----3-------5-------3--|
A|--10------10/8------8----------5-----5/3-----3--------1-----1/3-----3/1-----|
E|----------------------------------------------------------------------------|

Riff after Intro

e|--------------------|
B|--------------------|
G|--------------------|
D|--------------------|
A|--------------------|
E|--3--3--3--3--8--6--|

Keyboard Riff

e|-----------------------------------------------------------------------------|
B|-----------------------------------------------------------------------------|
G|-----------------------------------------------------------------------------|
D|---------------------------------------------------------------------8b------|
A|--10------10--8------8------10--8-----------------8------10------10------10--|
E|-----------------10----------------10--8------10-----10----------------------|

Verse

e|------------------------------------------------|
B|------------------------------------------------|
G|------------------------------------------------|
D|------------------------------------------------|
A|----------------------3 x6------1 x2------------|
E|--3 x8------1 x8--------------------------3 x8--|

Pre-Chorus

e|--------------------------------------|
A|--------------------------------------|
D|--------------------------------------|
G|--------------------------------------|
A|----------------------1 x8------------|
E|--3 x8------1 x8----------------3 x8--|

Chorus

e|-------------------------------------------------------------|
B|-------------------------------------------------------------|
G|-------------------------------------------------------------|
D|-------------------------------------------------------------|
A|------------3--3---------------------------------3--3--------|
E|--1--1----------------3--3--1--3------1--1-------------1--3--|

Verse Riff

e|-----------------------------------------------------------------------------------------|
B|-----------------------------------------------------------------------------------------|
G|--17b19r17p15------15------15--17b19r17p15-----------------15--17b19r17--15------15--15--|
D|---------------17------17-------------------17--17--15h17--------------------17----------|
A|-----------------------------------------------------------------------------------------|
E|-----------------------------------------------------------------------------------------|

  -------------------------------------|
  -------------------------------------|
  -------------------------------------|
  --17--15--17--15---------------------|
  ------------------17/15--13--15--13--|
  -------------------------------------|



e|-----------------------------------------------------------------------------------------|
B|-----------------------------------------------------------------------------------------|
G|--17b19r17p15------15------15--17b19r17p15-----------------15--17b19r17--15------15--15--|
D|---------------17------17-------------------17--17--15h17--------------------17----------|
A|-----------------------------------------------------------------------------------------|
E|-----------------------------------------------------------------------------------------|

  --------------------------|
  --------------------------|
  --17--15------------------|
  ----------17--15--17--17--|
  --------------------------|
  --------------------------|


Order of tab in the song:

Intro Riff x1
Riff After Intro x4
Keyboard Riff and Verse x2
Verse x2
Pre-Chorus x1
Chorus x2
Keyboard Riff and Verse x2
Verse Riff x1
Verse x2
Pre-Chorus x1
Chorus x2
Keyboard Riff and Verse x2
Verse Riff x1
Chorus x2
Keyboard Riff and Verse x4
Riff After Intro x4


************************************

| /   slide up
| \   slide down
| h   hammer-on
| p   pull-off
| ~   vibrato
| +   harmonic
| x   Mute note
| b   Bend
| pb  Pre-bend
| br  Bend release
| pbr Pre-bend release
| brb Bend release bend

************************************
comments
print report bad tab
1 comment total.
-1 reply
itsgoodtobefree wrote on December 12 2011, 10:50 pm

Intro should start on the 8th fret of the A string and 10th on the D. Watch any live video and you'll see him go down from there.

I want to post or [tab]
guest
You may want to rate the tab now too:
select rating
Please do not post tabs as comments. Select "correction" instead!