Oops, an error
Loading. Please wait.

Grown So Ugly Tab

version 1
version 1

Whole song

21,348 views 15 this week
3 commentsread comments
1 2 3 4 5
worth learning
x 6
add to favorites
launch autoscroll
font size
0
reset
how to read this tab
guitar tuner
Tab Pro tools
  • play this tab
  • loop segment
  • change instrument
  • show fretboard
  • metronome
Autoscroll
slow
fast
+/-
esc
set tempo
stop
Contributor
#-------------------PLEASE NOTE----------------------------------#
# This file is the author's own work and represents their interpretation of the #
# song. You may only use this file for private study, scholarship, or research. #
#----------------------------------------------------------------#

Black Keys
Grown So Ugly
Rubber Factory (2004)

[1] Intro-
[--------------------------------------------------------------------------------------]
[--------------------------------------------------------------------------------------]
[-----------------------------------9--------------------1---1-------------------------] ]
[-------5--------5------------------9--------------------2---2-----------( Rep x 8 )---]
[------------7-------7----5------------------------------2---2-------------------------]
[--------------------------------7------0---3(b)---0------0---0------------------------]

Sung in call and response with the above riff:
I got up this morning
Put on my shoes
Tied my shoes
Went to the mirror
For to comb my head
I made a move
Didn't know what to do
Try to break and run

[2]

[--------------------------------------------------------------]
[--------------------------------------------------------------]
[-----------9--9--9--9(p)7-------------------------------------]
[------------------------------9---7---------------------------] ]
[--------------------------------------10---7---7--------------] ]
[-----------------------------------------------(0)------------]

[------(Repeat 20x)------------]    At the end of         [------]         [-------]      [5(b)7---]
[---------------------------- ]     each of these        [------]         [8(b)10-]       [--------]
[---------------------------- ]     phrases he either  [-7(b)9-]        [-------]      [-----------]
[---------------------------- ]     does nothing         [------]  or   [-------] or  [------------]
[--------------7---9---9-----]     or something         [------]         [-------]      [----------]
[----7-(h)-9------------------]     like....                    [------]         [-------]      [--]

Baby, this ain't me
Baby, this ain't me
Grown so ugly
Grown so ugly
I don't even know myself
I don't even know myself

[3]

[---------------------------------------------------------------(Repeat 4x)----]
[------------------------------------------------------------------------------]
[------------------------------------------------------------------------------]
[-------------------x--x--------------------------------- x--x-----------------]
[-------------------x--x--------------------------------- x--x-----------------]
[-------0---5---7---x--x---7---5---(0)---3(b)(p)0---0------x--x----------------]

I left Angola
1964
Walking down my street
Knock on my baby's door
My baby come out
And asks me who I am
And I say, honey, honey
Don't you know your man?

[4]

(E9) I think..
[-x-]
[-9-]
[-8-]
[-9-]
[-9-]
[-9-]

She said my man's been gone
Since 1942
And I'll tell you Mr. Ugly,
He didn't look like you


[5] Outro -
Intro riff x8 with call and response improv. on E blues.

Reasonably sure this is all right.

Be cool,
D
                                        
comments
print report bad tab
3 comments total.
0 reply
closmurda wrote on February 20 2007, 04:23 pm

He actually plays the intro/verse part down on the first fret, starting with an open G string. the part you have on the 9th fret its actually just an open e and b string. the bend on the g is correct along with the e chord.

0 reply
closmurda wrote on February 20 2007, 04:29 pm

e[-------0---------------
b[-------0---------------
g[0--0------------1-1----
d[--2-2-0---------2-2----
a[------2---------2-2----
E[---------0h3b0--0-0----

Hopefully this makes sense.

0 reply
fujitsu921 wrote on September 10 2007, 02:59 pm

the bridge with the she said my mans been gone is a B7

I want to post or [tab]
guest
You may want to rate the tab now too:
select rating
Please do not post tabs as comments. Select "correction" instead!