Oops, an error
Loading. Please wait.

Grown So Ugly Tab

version 3
version 3

Whole song

1,901 views 6 this week
no commentswrite comment
1 2 3 4 5
excellent!
x 4
add to favorites
launch autoscroll
font size
0
reset
how to read this tab
guitar tuner
Tab Pro tools
  • play this tab
  • loop segment
  • change instrument
  • show fretboard
  • metronome
Autoscroll
slow
fast
+/-
esc
set tempo
stop
Contributor
Difficulty
intermediate
                                  ~~~~~~~~~~~~~~~~~~~~~~~~~~~~~~~~~~~~~~~~           
                                               Grown So Ugly
                                             by: The Black Keys
                                              Rubber Factory
                                  ~~~~~~~~~~~~~~~~~~~~~~~~~~~~~~~~~~~~~~~~
Tabbed by: Connor O.
Tuning: Standard



Comment or message any ideas or corrections. Please rate my tab. If you've got
problems with the tab, I'd encourage you to contact me with those problems so I
can fix the tab or provide advice for playing. Don't just give me a poor rating
and not give me any feedback. The idea is for us all to work together to create
a perfect finished product. This tab just represents the best I can do. It's 
definitely up for peer review.

http://www.youtube.com/watch?v=nThv8ZLWCLk



Key:
where # represents a number

#h# - hammer
#p# - pull
/ \ - slides, up and down respectively.
#b# - bend from normal note up to achieve bended note.
#r# - release bend from bended note to normal note.
#b  - slight bend, a curl.



Intro:

  0:00
  I got up this mornin'
  Put on my shoes
  Tied my shoes
  Went to the mirror
  I didn't comb my hair
  I made a move
  Didn't no what to do
  Tried to break and run
  

e|-------------0--------------|
B|-------------0--------------|
G|-0---0-------1--------1-1---|
D|---2---2-0---2-0------2-2---|  X8
A|-------------2-0------2-2---|
E|-----------0---0-3b-0-------|



Bridge:


  0:34

e|-0---0---0---0-0-0----------|
B|-3-/-5---5---5-3-0----------|
G|---------------------2---0--|
D|----------------------------|  
A|----------------------------|
E|-0---0---0---0---0---0---0--|


  0:37

e|----------------------------|
B|----------------------------|
G|-1-----1--------------------|
D|-2-----2-----------------0--|  X2
A|-2-----2-----------0h2------| 
E|----0------0---0---0---0---0|


  0:44

e|-----------0----------------|
B|-----------3/5~\3-----------|
G|-1-----1--------------------|
D|-2-----2-----------------0--|  
A|-2-----2-----------0h2------| 
E|----0------0---0---0---0---0|


  0:47

e|-----------0----------------|
B|-----------5/8~\5-----------|
G|-1-----1--------------------|
D|-2-----2-----------------0--|  
A|-2-----2-----------0h2------| 
E|----0------0---0---0---0---0|

  
  0:50

e|-----------0----------------|
B|-----------8/10~\8----------|
G|-1-----1--------------------|
D|-2-----2-----------------0--|  
A|-2-----2-----------0h2------| 
E|----0------0---0---0---0---0|


  0:54

e|-----------0----------------|
B|-----------5\3--------------|
G|-1-----1--------------------|
D|-2-----2-----------------0--|  
A|-2-----2-----------0h2------| 
E|----0------0---0---0---0---0|


  0:56

e|-----------0----------------|
B|-----------5----------------|
G|-1-----1--------------------|
D|-2-----2-----------------0--|  
A|-2-----2-----------0h2------| 
E|----0------0---0---0---0---0|



Verse:

  0:59
  Baby this ain't me
  Baby this ain't me
  Grown so ugly
  Grown so ugly
  Don't even know myself
  Don't even know myself
e|----------------------------|
B|----------------------------|
G|-1-----1--------------------|
D|-2-----2-----------------0--|  X6
A|-2-----2-----------0h2------| 
E|----0------0---0---0---0---0|


  1:17  
  Left Angola     
  1964
e|---------x------------------|
B|---------x------------------|
G|---------x------------------|
D|----------------------------|  
A|----------------------------|
E|-0-5-7--------7-5-3---0--0--|


  1:23
  Walkin down the street
  Knock upon my baby's door
e--------x--x-x-------------x-x-|
B|-------x--x-x-------------x-x-|
G|-------x--x-x----------1--x-x-|
D|-----------------------2------|  
A|-----------------------2------|
E|-0-5-7--------7-5-3bp0--------|


  1:29
  My baby come out
  Ask me who I am
e|-------x--x-x-------------x-|
B|-------x--x-x-------------x-|
G|-------x--x-x----------1--x-|
D|-----------------------2----|  
A|-----------------------2----|
E|-0-5-7--------7-5-3bp0------|


  1:34
  I say "Honey"
  "Honey don't you know your man"
e|-------x--x-x---------------|
B|-------x--x-x---------------|
G|-------x--x-x----------1----|
D|-----------------------2----|  
A|-----------------------2----|
E|-0-5-7--------7-5-3bp0------|


  1:39 
  She said "My man been gone.."
  ".....since 19 and 42....."
  "I'll tell you Mr. Ugly..."
  "He didn't look like you"
e|-x-|
B|-x-|
G|-8-|
D|-7-|  (barre 7th fret)
A|-9-|
E|-7-|



Solo:


  1:48

e|-------------0-----------------|
B|-------------0-----------------|
G|-0---0-------1--------1-1--2b4-|
D|---2---2-0---2-0------2-2------| 
A|-------------2-0------2-2------|
E|-----------0---0-3b-0----------|


  1:52

e|-------------0-----------------|
B|-------------0-----------------|
G|-0---0-------1--------1-1--3/5-|
D|---2---2-0---2-0------2-2------| 
A|-------------2-0------2-2------|
E|-----------0---0-3b-0----------|


  1:57

e|-------------0-------------3b5~r3-|
B|-------------0--------------------|
G|-0---0-------1--------1-1---------|
D|---2---2-0---2-0------2-2---------| 
A|-------------2-0------2-2---------|
E|-----------0---0-3b-0-------------|


  2:01

e|-------------0-------------3/5~\3p0-3/5-|
B|-------------0--------------------------|
G|-0---0-------1--------1-1---------------|
D|---2---2-0---2-0------2-2---------------| 
A|-------------2-0------2-2---------------|
E|-----------0---0-3b-0-------------------|


  2:05

e|-------------0------------------|
B|-------------0------------------|
G|-0---0-------1--------1-1-------|
D|---2---2-0---2-0------2-2-------| 
A|-------------2-0------2-2-------|
E|-----------0---0-3b-0-----3/5\3-|
                            =====

  2:10

e|-------------0------------------|
B|-------------0------------------|
G|-0---0-------1--------1-1-------|
D|---2---2-0---2-0------2-2-------| 
A|-------------2-0------2-2-------|
E|-----------0---0-3b-0-----5-----|
                            = 

  2:14

e|-------------0------------------|
B|-------------0------------------|
G|-0---0-------1--------1-1--2b4--|
D|---2---2-0---2-0------2-2-------| 
A|-------------2-0------2-2-------|
E|-----------0---0-3b-0-----------|


  2:18

e|-------------0------------------|
B|-------------0------------------|
G|-0---0-------1--------1-1-------|
D|---2---2-0---2-0------2-2-------|  
A|-------------2-0------2-2-------|
E|-----------0---0-3b-0-----------|
comments
print report bad tab
I want to post or [tab]
guest
You may want to rate the tab now too:
select rating
Please do not post tabs as comments. Select "correction" instead!