Oops, an error
Loading. Please wait.

Hard Row Tab

version 2
version 2

Solo

Whole song

Interactive

38,540 views 129 this week
no commentswrite comment
1 2 3 4 5
excellent!
x 13
add to favorites
launch autoscroll
font size
0
reset
how to read this tab
guitar tuner
Tab Pro tools
  • play this tab
  • loop segment
  • change instrument
  • show fretboard
  • metronome
Autoscroll
slow
fast
+/-
esc
set tempo
stop
Contributor
-------------------------------------------------------------------------------
                          HARD ROW - The Black Keys
-------------------------------------------------------------------------------

Tabbed by: Whip It
Email: second-heartbeat@live.com

Tuning: Standard (EADGBE)

e|---------------------------------------------------------------------------|
B|---------------------------------------------------------------------------|
G|---------------------------------------------------------------------------|
D|-7---7-5---5-4---4-3--5---7---7-5---5-4------------------------------------|
A|-7---7-5---5-4---4-3--5---7---7-5---5-4------------------------------------|
E|-5---5-3---3-2---2-1--3---5---5-3---3-2------------------------------------|

e|-------------------------------0-----------------------------0-------------|
B|-----------------2----2----3---0---------------2----2----3---0-------------|
G|-----------------2----2----2----0h2------------2----2----2----0h2----------|
D|---------------------------------------------------------------------------|
A|--------------0----0------------------------0----0-------------------------|
E|--------------------3---32---20-------------------3---32---20--------------|
   If you wanna go            And leave your man                Go on..

e|-------------------0-----------------------------0-------------------------|
B|-----2----2----3---0---------------2----2----3---0-------------------------|
G|-----2----2----2----0h2------------2----2----2----0------------------------|
D|---------------------------------------------------------------------------|
A|--0----0------------------------0----0-------------------------------------|
E|--------3---32---20-------------------3---32---20--------------------------|
                     I'll under-stand

e|---------------------------------------------------------------------------|
B|---------------------------------------------------------------------------|
G|---------------------------------------------------------------------------|
D|-----------7-----7----------7-----7--5----5----------5---5-----------------|
A|-----------7-----7----------7-----7--5----5----------5---5-----------------|
E|-----------5-----5----------5-----5--3----3----------3---3-----------------|
But then the night gets dark,            all is still

e|---------------------------------------------------------------------------|
B|---------------------------------------------------------------------------|
G|---------------------------------------------------------------------------|
D|-4---4--------4---4---3---3------------------------------------------------|
A|-4---4--------4---4---3---3------------------------------------------------|
E|-2---2--------2---2---1---1------------------------------------------------|
   Pray for me,       I know you will..

e|---------------------------------------------------------------------------|
B|-5/8---5---------5---5-----------------------------------------------------|
G|-----------5h7---------7p5-------------------------------------------------|
D|---------------------------7-----------------------------------------------|
A|---------------------------------------------------------------------------|
E|---------------------------------------------------------------------------|
   Hard row to hoe all by yourself.

e|-------------------------------0-----------------------------0-------------|
B|-----------------2----2----3---0---------------2----2----3---0-------------|
G|-----------------2----2----2----0h2------------2----2----2----0h2----------|
D|---------------------------------------------------------------------------|
A|--------------0----0------------------------0----0-------------------------|
E|--------------------3---32---20-------------------3---32---20--------------|

e|-------------------------------0-----------------------------0-------------|
B|-----------------2----2----3---0---------------2----2----3---0-------------|
G|-----------------2----2----2----0h2------------2----2----2----0h2----------|
D|---------------------------------------------------------------------------|
A|--------------0----0------------------------0----0-------------------------|
E|--------------------3---32---20-------------------3---32---20--------------|
                                                          We hit the city

e|-------------------------------0-----------------------------0-------------|
B|-----------------2----2----3---0---------------2----2----3---0-------------|
G|-----------------2----2----2----0h2------------2----2----2----0h2----------|
D|---------------------------------------------------------------------------|
A|--------------0----0------------------------0----0-------------------------|
E|--------------------3---32---20-------------------3---32---20--------------|
                              And it swallows you whole    You got no friends

e|-------------------------------0-----------------------------0-------------|
B|-----------------2----2----3---0---------------2----2----3---0-------------|
G|-----------------2----2----2----0h2------------2----2----2----0------------|
D|---------------------------------------------------------------------------|
A|--------------0----0------------------------0----0-------------------------|
E|--------------------3---32---20-------------------3---32---20--------------|
   darling                    To satisfy your soul

e|---------------------------------------------------------------------------|
B|---------------------------------------------------------------------------|
G|---------------------------------------------------------------------------|
D|-----------7-----7----------7-----7--5----5----------5---5-----------------|
A|-----------7-----7----------7-----7--5----5----------5---5-----------------|
E|-----------5-----5----------5-----5--3----3----------3---3-----------------|
But then the sidewalk ends,                lights all red

e|---------------------------------------------------------------------------|
B|---------------------------------------------------------------------------|
G|---------------------------------------------------------------------------|
D|-4---4--------4---4---3---3------------------------------------------------|
A|-4---4--------4---4---3---3------------------------------------------------|
E|-2---2--------2---2---1---1------------------------------------------------|
   You say it yourself, better off dead..

e|---------------------------------------------------------------------------|
B|-5/8---5---------5---5-----------------------------------------------------|
G|-----------5h7---------7p5-------------------------------------------------|
D|---------------------------7p5---------------------------------------------|
A|---------------------------------------------------------------------------|
E|---------------------------------------------------------------------------|
   Hard row to hoe all by yourself.

e|-------------------------------0-----------------------------0-------------|
B|-----------------2----2----3---0---------------2----2----3---0-------------|
G|-----------------2----2----2----0h2------------2----2----2----0h2----------|
D|---------------------------------------------------------------------------|
A|--------------0----0------------------------0----0-------------------------|
E|--------------------3---32---20-------------------3---32---20--------------|

e|-------------------------------0-------------------------------------------|
B|-----------------2----2----3---0---------------2----2----3-----------------|
G|-----------------2----2----2----0h2------------2----2----2-----------------|
D|---------------------------------------------------------------------------|
A|--------------0----0------------------------0----0-------------------------|
E|--------------------3---32---20-------------------3---32---20--------------|

e|---------------------------------------------------------------------------|
B|---------------------------------------------------------------------------|
G|---------------------------------------------------------------------------|
D|---7----7----------7-----7--5-----5----------5-----5-----------------------|
A|---7----7----------7-----7--5-----5----------5-----5-----------------------|
E|---5----5----------5-----5--3-----3----------3-----3-----------------------|

e|---------------------------------------------------------------------------|
B|---------------------------------------------------------------------------|
G|---------------------------------------------------------------------------|
D|---4----4----------4-----4--3-----3-----3--3--5----------------------------|
A|---4----4----------4-----4--3-----3-----5--3--5----------------------------|
E|---2----2----------2-----2--1-----1--0--3--1--3----------------------------|

e|---------------------------------------------------------------------------|
B|---------------------------------------------------------------------------|
G|---------------------------------------------------------------------------|
D|---7----7----------7-----7--5-----5----------5-----5-----------------------|
A|---7----7----------7-----7--5-----5----------5-----5-----------------------|
E|---5----5----------5-----5--3-----3----------3-----3-----------------------|

e|---------------------------------------------------------------------------|
B|---------------------------------------------------------------------------|
G|---------------------------------------------------------------------------|
D|---4----4----------4-----4--3-----3--5--6----------------------------------|
A|---4----4----------4-----4--3-----3--5--6----------------------------------|
E|---2----2----------2-----2--1-----1--3--4----------------------------------|

e|---------------------------------------------------------------------------|
B|---------------------------------------------------------------------------|
G|---------------------------------------------------------------------------|
D|---7----7----------7-----7--5-----5----------5-----5-----------------------|
A|---7----7----------7-----7--5-----5----------5-----5-----------------------|
E|---5----5----------5-----5--3-----3----------3-----3-----------------------|

e|---------------------------------------------------------------------------|
B|---------------------------------------------------------------------------|
G|---------------------------------------------------------------------------|
D|---4----4----------4-----4--3-----3----------------------------------------|
A|---4----4----------4-----4--3-----3----------------------------------------|
E|---2----2----------2-----2--1-----1----------------------------------------|

e|-------5h0-----------------------------------------------------------------|
B|-5/8---5h0-------5---5-----------------------------------------------------|
G|-----------5h7-------5-7p5-------------------------------------------------|
D|-----------5h0-------------7-----------------------------------------------|
A|---------------------------------------------------------------------------|
E|---------------------------------------------------------------------------|

e|-------------------------------0-----------------------------0-------------|
B|-----------------2----2----3---0---------------2----2----3---0-------------|
G|-----------------2----2----2----0h2------------2----2----2----0h2----------|
D|---------------------------------------------------------------------------|
A|--------------0----0------------------------0----0-------------------------|
E|--------------------3---32---20-------------------3---32---20--------------|

e|-------------------------------0-----------------------------0-------------|
B|-----------------2----2----3---0---------------2----2----3---0-------------|
G|-----------------2----2----2----0h2------------2----2----2----0h2----------|
D|---------------------------------------------------------------------------|
A|--------------0----0------------------------0----0-------------------------|
E|--------------------3---32---20-------------------3---32---20--------------|

e|-------------------------------0-----------------------------0-------------|
B|-----------------2----2----3---0---------------2----2----3---0-------------|
G|-----------------2----2----2----0h2------------2----2----2----0h2----------|
D|---------------------------------------------------------------------------|
A|--------------0----0------------------------0----0-------------------------|
E|--------------------3---32---20-------------------3---32---20--------------|
   Walk out on me            Walk out on him                You need no man

e|-------------------0-----------------------------0-------------------------|
B|-----2----2----3---0---------------2----2----3---0-------------------------|
G|-----2----2----2----0h2------------2----2----2----0------------------------|
D|---------------------------------------------------------------------------|
A|--0----0------------------------0----0-------------------------------------|
E|--------3---32---20-------------------3---32---20--------------------------|
                     To do you in...

e|---------------------------------------------------------------------------|
B|---------------------------------------------------------------------------|
G|---------------------------------------------------------------------------|
D|-----------7-----7----------7-----7--5----5----------5---5-----------------|
A|-----------7-----7----------7-----7--5----5----------5---5-----------------|
E|-----------5-----5----------5-----5--3----3----------3---3-----------------|
  But if the night gets dark,          all is still

e|---------------------------------------------------------------------------|
B|---------------------------------------------------------------------------|
G|---------------------------------------------------------------------------|
D|-4---4--------4---4---3---3------------------------------------------------|
A|-4---4--------4---4---3---3------------------------------------------------|
E|-2---2--------2---2---1---1------------------------------------------------|
I'll pray for you,   you know I will..

e|---------------------------------------------------------------------------|
B|-5/8---5---------5---------------------------------------------------------|
G|-----------5h7---------7p5-------------------------------------------------|
D|---------------------------7-----------------------------------------------|
A|---------------------------------------------------------------------------|
E|---------------------------------------------------------------------------|
   Hard row to hoe all by yourself.

e|-------------------------------0-----------------------------0-------------|
B|-----------------2----2----3---0---------------2----2----3---0-------------|
G|-----------------2----2----2----0h2------------2----2----2----0h2----------|
D|---------------------------------------------------------------------------|
A|--------------0----0------------------------0----0-------------------------|
E|--------------------3---32---20-------------------3---32---20--------------|
                                All by yourself

e|-------------------------------0-----------------------------0-------------|
B|-----------------2----2----3---0---------------2----2----3---0-------------|
G|-----------------2----2----2----0h2------------2----2----2----0------------|
D|---------------------------------------------------------------------------|
A|--------------0----0------------------------0----0-------------------------|
E|--------------------3---32---20-------------------3---32---20--------------|
   All by yourself                All by yourself

e|---3-----------------------------------------------------------------------|
B|---2-----------------------------------------------------------------------|
G|---2----------------------------------------------6------------------------|
D|---2----------------------------------------------7------------------------|
A|---0----------------------------------------------7------------------------|
E|--------------------------------------------------5------------------------|

===============================================================================

This isn't the actual solo - as I perform some Black Keys stuff with a mate,
I don't learn the proper solos as they are overdubs and we can't do that live.
If you'd like I could probably tab it for you, but otherwise I'll write in the
"solo" I play live.

e|---------------------3-3---------------------------5/3p0-------------------|
B|-------2----2----3---3-3-------------2----2----3---5/3p0-------------------|
G|-------2----2----2-------------------2----2----2---------------------------|
D|---------------------------------------------------------------------------|
A|----0----0------------------------0----0-----------------------------------|
E|----------3---32---20-------------------3---32---20------------------------|

e|---------------------/8-8-------------------------5p3p0-3-5----------------|
B|-------2----2----3---/8-8------------2----2----3---------------------------|
G|-------2----2----2-------------------2----2----2---------------------------|
D|---------------------------------------------------------------------------|
A|----0----0------------------------0----0-----------------------------------|
E|----------3---32---20-------------------3---32---20------------------------|


Note: These tabs aren't in perfect timing. I'd listen to the song and figure
out when to play them myself if I were you. If you have any problems or want
the actual solo or something just give me a buzz.


| /  slide up
| \  slide down
| h  hammer-on
| p  pull-off
| ~  vibrato
| +  harmonic
| x  Mute note
===============================================================================
comments
print report bad tab
I want to post or [tab]
guest
You may want to rate the tab now too:
select rating
Please do not post tabs as comments. Select "correction" instead!