Oops, an error
Loading. Please wait.

Have Love Will Travel Tab

version 2
version 2

Intro

Solo

Whole song

Interactive

4,423 views 6 this week
no commentswrite comment
1 2 3 4 5
worth learning
x 2
add to favorites
launch autoscroll
font size
0
reset
how to read this tab
guitar tuner
Tab Pro tools
  • play this tab
  • loop segment
  • change instrument
  • show fretboard
  • metronome
Autoscroll
slow
fast
+/-
esc
set tempo
stop
Contributor
Difficulty
novice
-----------------------------------------------------------------------------
                  Have Love Will Travel - The Black Keys
-----------------------------------------------------------------------------
Tabbed by: spyder52
Email: cookie.shack@googlemail.com

Tuning: Standard
This is my first TAB, I looked at the other versions of the Intro and they 
sounded wrong, I believe this is the correct way to play it:

Intro

e|--------------------------------------------------------------------------|
B|--------------------------------------------------------------------------|
G|----------5--7--7--5-5/9-7--5--7--5--2--0---------------------------------|
D|--5/7--7------------------------------------------------------------------|
A|--------------------------------------------------------------------------|
E|--------------------------------------------------------------------------|

e|--------------------------------------------------------------------------|
B|--------------------------------------------------------------------------|
G|---------5--7--7--5-5/9---------------------------------------------------|
D|--7--7--------------------------------------------------------------------|
A|--------------------------------------3---5--5--3--5/7--5--3--5--3--------|
E|--------------------------------5--5--------------------------------5--3--|

e|--------------------------------------------------------------------------|
B|--------------------------------------------------------------------------|
G|--------------------------------------------------------------------------|
D|--------------------------------------------------------------------------|
A|-------3-----5--5----3--5/7----10--12-------------------------------------|
E|-5--5---------------------------------------------------------------------|

e|--------------------------------------------------------------------------|
B|--------------------------------------------------------------------------|
G|--------------------------------------------------------------------------|
D|--------------------------------------------------------------------------|
A|---------3---5--5--3--5/7--5--3--5--3-------------------------------------|
E|--5--5---------------------------------5--3-------------------------------|

e|--------------------------------------------------------------------------|
B|--------------------------------------------------------------------------|
G|--------------------------------------------------------------------------|
D|--------------------------------------------------------------------------|
A|-------3-----5--5----3--5/7----10--12-------------------------------------|
E|-5--5---------------------------------------------------------------------|

Verse

I use these chords and they sound pretty good! (Just cycle through them, its pretty easy)

A: 505670
D: x54555
E: x76777

=============================================================================
comments
We did not receive enough feedback on this tab! Please rate:
print report bad tab
1 2 3 4 5
I want to post or [tab]
guest
You may want to rate the tab now too:
select rating
Please do not post tabs as comments. Select "correction" instead!