Oops, an error
Loading. Please wait.

Have Mercy On Me Tab

version 1
version 1

Intro

Whole song

21,185 views 6 this week
4 commentsread comments
1 2 3 4 5
excellent!
x 9
add to favorites
launch autoscroll
font size
0
reset
how to read this tab
guitar tuner
Tab Pro tools
  • play this tab
  • loop segment
  • change instrument
  • show fretboard
  • metronome
×
Best way to learn
"Have Mercy On Me"
Autoscroll
slow
fast
+/-
esc
set tempo
stop
Contributor
Difficulty
This is my stab at charting this great cover.  Credit goes to the first guy, who posted
tab earlier, for giving me the starting off point.  Basically this is the intro, and
a bit of the foundation from which the rest of the song works, before and under the 
 I also included the first bit of the solo, but after that I can't make it out by ear
 I've been playing for 8 months and this is the first tab I posted, so I'm looking 
to being flamed for missing a note.

Standard tuning

E --------------------------------------------------------------------------|
B ------------------7-5-3p0-----0h2-----------------------------------------|
G --------------------------0h2-----0h2p0-----------------------------------|
D --------------5-7b--—-------------------2---------5-5h7-5---5---------5---|
A ----------5h7---------------------------------5h7---------7-------5h7-----|
E -3b-0h5h7---------------------------------5h7-----------------5h7---------|

E --------------------------------------------------------------------------|
B --------------------------------------------------------------------------|
G --------------------------------------------------------------------------|
D --------------------—---5-------------------------------------5-----------|
A -7-5----------7-5---5-7---7---------------------5---7-5---5-7---7---------|
E -----7-5-3b-0-----7---------3-5-3-5-3-5-3-5-5h7---0-----7---------3-5-3-5-|

E --------------------------------------------------------------------------|
B -----------------------------------------------3-5-7-5-3-0----------------|
G -----------------------------------------------------------2p0------------|
D --------------------—--5-------------7------------------------------------|
A -------5-----------5h7---7h5---------7(4 beats)-----------------7-5---5-7-|
E -3-5h7---7-3-0-5h7-----------7-5p0h5-5------------------------------7-----|

E --------------------------------------------------------------------------|
B --------------------------------------------------------------------------|
G --------------------------------------------------------------------------|
D -5-------------------—----------------5----------------------------------5|
A ---7---------------------7-5---5—7-7p---h7---------------5-----------5-7--|
E -----3-5-3-5-3-5-3-5-3-0-----7-------------3-5-3-5-3-5h7---7-3-0-5-7------|

E --------------------------------------------------------------------------|
B --------------------------------------------------------------------------|
G --------------------------------------------------------------------------|
D ---------9----7----5—---7-------------------------------------------------|
A -7-5-----9(4)-7(4)-5(1)-7-7-5---------------------------------------------|
E -----7-5-7----5----3----5-----7-5-3-0-3-0---------------------------------|
(Chorus pattern varies, examples)
E --------------------------------------------------------------------------|
B --------------------------------------------------------------------------|
G --------------------------------------------------------------------------|
D -----------5--------—--------------------------5h7p5-------------5--------|
A -7-5---5-7---7-----------------------7-5---5-7-------7-------5-7---7-5----|
E -----7---------3-5-3-5-3-5-3-5/7-3-0-----7-------------3-5-7-----------7-5|

E --------------------------------------------------------------------------|
B --------7-5-3-0-----------------------------------------------------------|
G ----------------2-0-------------------------------------------------------|
D ---7----------------2-----------------------------------------------------|
A ---7(4)-------------------------------------------------------------------|
E -7-5----------------------------------------------------------------------|
 (start of solo)
E -3h5-7-3-5-3-5h7-3h0-------3h5--------------------------------------------|
B ---------------------3-3h5-----3-3h5--------------------------------------|
G --------------------------------------------------------------------------|
D --------------------—-----------------------------------------------------|
A --------------------------------------------------------------------------|
E --------------------------------------------------------------------------|
comments
print report bad tab
4 comments total. Showing first comments.
0 reply
hyphensprint wrote on September 12 2008, 01:52 pm

thanks a lot man, ur welcome for the start but I've always wanted the intro and never would have taken the time to figure it out

0 reply
JulianApostate wrote on October 3 2008, 12:43 pm

Yeah, no worries. I wish I had been able to figure out the solo, it sounds so great, but I just couldn't find it by ear.

0 reply
RobC23 wrote on February 13 2009, 09:25 pm

Great Job man. This is such a jammin song.

I want to post or [tab]
guest
You may want to rate the tab now too:
select rating
Please do not post tabs as comments. Select "correction" instead!