Oops, an error
Loading. Please wait.

Heavy Soul Tab

version 1
version 1

Interactive

59,981 views 27 this week
5 commentsread comments
1 2 3 4 5
accurate
x 11
add to favorites
launch autoscroll
font size
0
reset
how to read this tab
guitar tuner
Tab Pro tools
  • play this tab
  • loop segment
  • change instrument
  • show fretboard
  • metronome
×
Best way to learn
"Heavy Soul"
Autoscroll
slow
fast
+/-
esc
set tempo
stop
Contributor
Difficulty
intermediate
-------------------------------------------------------------------------------
                            HEAVY SOUL-THE BLACK KEYS
-------------------------------------------------------------------------------
Tabbed by:M. Wright
Email:mikeswright49@hotmail.com
Sorry No solo, this tab is impossible to find so here's my shot
Tuning:standard

Verse
e|---------------------------------------------------------------------------|
B|---------------------------------------------------------------------------|
G|-----------------2b4r2-2p0-------------------------------------------------|
D|----------2-22------------2p0-2-2------------------------------------------|
A|--------2---22------------------2------------------------------------------|
E|--0-3-5-----00------------------0------------------------------------------|

Chorus
e|---------------------------------------------------------------------------|
B|---------------------------------------------------------------------------|
G|------------22-------------------------------------------------------------|
D|--22--------22-------------------------------------------------------------|
A|--22--------00-------------------------------------------------------------|
E|--00-0h3-3b----3b-3p0------------------------------------------------------|
comments
print report bad tab
5 comments total. Showing first comments.
0 reply
DeuceyBlumps wrote on September 10 2007, 12:48 am

short tab... it's a good starting point but could use some work

0 reply
lionis89 wrote on September 11 2009, 11:52 pm

its hard to find this song tabbed out. Correct me if I'm wrong but shouldnt it be drop D?

0 reply
Hugsnotdrugs wrote on June 3 2011, 01:06 pm

@lionis I dont think dan uses drop D, not saying its impossible, just I've never seen him do it.

I want to post or [tab]
guest
You may want to rate the tab now too:
select rating
Please do not post tabs as comments. Select "correction" instead!