Oops, an error
Loading. Please wait.

Hold Me In Your Arms Tab

version 1
version 1

Whole song

20,532 views 6 this week
2 commentsread comments
1 2 3 4 5
accurate
x 5
add to favorites
launch autoscroll
font size
0
reset
how to read this tab
guitar tuner
Tab Pro tools
  • play this tab
  • loop segment
  • change instrument
  • show fretboard
  • metronome
×
Best way to learn
"Hold Me In Your Arms"
Autoscroll
slow
fast
+/-
esc
set tempo
stop
Contributor
Difficulty
novice
-------------------------------------------------------------------------------
                    HOLD ME IN YOUR ARMS - Black Keys
-------------------------------------------------------------------------------
Tabbed by: Shiggedyshwa

Tuning: Standard

There is an intro that i do not have tabbed. 
Beginning: It is slow and it speeds up and gets into the main riff [the 5/4 slide is
and you have to make sure it is two notes it is not just hitting the 5 really quick it
is making 5 sound and then sliding to 4]

e|-------------------------------------------------------|
B|-------------------------------------------------------|
G|------7------------------------------------------------|
D|--0------5/4----0-----------0--------------------------|(x3 then it gets
A|---------------------3sb---------5sb~------------------|   Faster)
E|-------------------------------------------------------|

Main Riff throughout the whole song: (Faster Version of Beginning)[the 5/4 slide is alot quicker]

e|-------------------------------------------------------|
B|-------------------------------------------------------|
G|------7------------------------------------------------| (x..a lot)
D|--0------5/4----0---------0----------------------------|
A|---------------------3sb------------------5sb~---------|
E|-------------------------------------------------------|


| /  slide up
| \  slide down
| h  hammer-on
| p  pull-off
| ~  vibrato
| +  harmonic
| x  Mute note
| sb (look Below)
===============================================================================
There are a few(every time it goes on the 3rd and 5th fret of A string) bends that arent
bends. Sounds best if you just bend barely like you are trying to make it ring but a
harder than that but a little less than a half bend. so for those i use "sb" as the symbol.

This was my first tab of a real song that isnt a theme song for some random show. I was
of myself i learned it by myself :)
And it is Not just the intro but it isnt really the whole song either but there are just
little fills and this main riff is most of the song.
There are little fills here and there i haven't really got those yet :\
Well, i hope you enjoy ^_^
Comments are welcome :)
comments
print report bad tab
2 comments total.
0 reply
shiggedyshwa wrote on December 9 2006, 06:07 pm

What happened! okay... after teh 3 and the 5. with all those numbers... why did it do that? i had this small arrow symbol and somehow those numbers showed up. Thats not good... so i guess i'll have to re-do it.

+2 reply
denyinu247 wrote on January 15 2007, 01:37 pm

it should be


G------7--------------------------
D--0-------------------0----------
A---------5/4p0-------------5sb~--
E----------------1sb--------------

I want to post or [tab]
guest
You may want to rate the tab now too:
select rating
Please do not post tabs as comments. Select "correction" instead!