Oops, an error
Loading. Please wait.

Howlin For You Bass Tab

version 2
version 2

Whole song

Interactive

11,703 views 51 this week
4 commentsread comments
1 2 3 4 5
excellent!
x 14
add to favorites
launch autoscroll
font size
0
reset
guitar tuner
Tab Pro tools
  • play this tab
  • loop segment
  • change instrument
  • show fretboard
  • metronome
×
Best way to learn
"Howlin For You"
Autoscroll
slow
fast
+/-
esc
set tempo
stop
Contributor
Difficulty
novice
Noticed the other tab was a little off, but it gave me just enough to work off of that I 
could figure it out. Thanks to Jeremy Lake, who tabbed this previously, just a few 
errors though, thats all ;)

Main Riff:
G|-------------|
D|-------------|
A|----5h7------|
E|--7-----0----|

Interlude:
"Baby Im Howlin' For You..."
G|---------------------|
D|---------------------|
A|----5h7--------------|
E|--7-----7--5--3----0-|
                  ^short break there

Chorus: (x2)
"Da Da, Da Da Da..."
G|---------0-------------------------2-0--------------|
D|-----0-2---2------0-2----------0-2---------0--------|
A|---2------------2------------2-----------2---2------|
E|----------------------3-0----------------------3-0--|

Chorus Con't:
G|--------------------------------------------|
D|----0------------------------------5h7p5----|
A|--2-----5h7--77-77-77-77-77-77-77--------7--|
E|--------------------------------------------|

and thats the entire song!
Enjoy!
comments
print report bad tab
4 comments total. Showing first comments.
0 reply
Tanner Streeter wrote on June 13 2012, 04:14 am

Is this played with slight distortion?

+1 reply
Guitarist_67 wrote on August 14 2012, 06:59 pm

Yes of course!

+1 reply
Bassprogman wrote on February 13 2013, 07:12 pm

More than slight

I want to post or [tab]
guest
You may want to rate the tab now too:
select rating
Please do not post tabs as comments. Select "correction" instead!