Oops, an error
Loading. Please wait.
We have an official Howlin For You tab made by UG professional guitarists. Check out the tab »
×
14,150 views 27 this week
4 commentsread comments
1 2 3 4 5
x 17
add to favorites
×
Save as Personal and add changes to this tab that will be seen only by you. Learn more ›
×
You can save this tab as Personal to edit and correct it or add notes. All changes will be seen only by you. Learn more »
launch autoscroll
font size
0
reset
guitar tuner
edit
Autoscroll
slow
fast
+/-
esc
set tempo
stop
Author
Difficulty
[Main Riff]
G|-------------|
D|-------------|
A|----5h7------|
E|--7-----0----|

[Interlude]
"Baby Im Howlin' For You..."
G|---------------------|
D|---------------------|
A|----5h7--------------|
E|--7-----7--5--3----0-|
                  ^short break there

[Chorus] (x2)
"Da Da, Da Da Da..."
G|---------0-------------------------2-0--------------|
D|-----0-2---2------0-2----------0-2---------0--------|
A|---2------------2------------2-----------2---2------|
E|----------------------3-0----------------------3-0--|

[Chorus]
(Con't)
G|-----------------------------------------------------|
D|----0--------------------------------5h7p5-----------|
A|--2-----5h7--7-7-7-7-7-7-7-7-7-7-7-7-7-7----------7--|
E|-----------------------------------------------------|


************************************

| h  Hammer-on
| p  Pull-off

************************************

            
            
Suggest correction
Creating personal tab
Creating personal tab
You can edit any tab online and save it as your Personal.

You can edit, replace or remove any tab part or add personal notes – all changes will be seen only by you.

Personal tabs can be accessed anytime from any device, even offline.
Learn more »
comments
print report bad tab
4 comments total. Showing first comments.
0 reply
Tanner Streeter 324 Jun 13, 2012 12:14 AM

Is this played with slight distortion?

+1 reply
Guitarist_67 94 Aug 14, 2012 02:59 PM

Yes of course!

+1 reply
Bassprogman 10 Feb 13, 2013 02:12 PM

More than slight

guest
You may want to rate the tab now too:
select rating
Wanna post a correction for this tab? Suggest correction