Oops, an error
Loading. Please wait.

Hurt Like Mine intro tab

version 1
version 1

Intro

Whole song

13,951 views 1 this week
3 commentsread comments
1 2 3 4 5
1 last vote to show rating
add to favorites
×
Save as Personal and add changes to this tab that will be seen only by you. Learn more ›
×
You can save this tab as Personal to edit and correct it or add notes. All changes will be seen only by you. Learn more »
launch autoscroll
font size
0
reset
how to read this tab
guitar tuner
edit
Autoscroll
slow
fast
+/-
esc
set tempo
stop
Author
i think this is fairly close, i have not seen it anywhere else so this is what i came up with
----------------------------|
----------------------------|
----------------------------|
------7-7-7-7-5h6-----------|
-7--------------------------|
----------------------------|

not sure bout these 5's but i throw them in
----------------------------------------------|
---(5)-------(5)----------(5)-------(5)-------|
----------------------------------------------|
-------7-5h6------------------7-5h6-----------|
-7-------------------5--7-------------------5-|
-----------------5h7--------------------5h7---|


any additions, comments (constructive ones), etc are welcome.
~Also looking for a tab for "if you see me comin'".

            
            
Suggest correction
Creating personal tab
Creating personal tab
You can edit any tab online and save it as your Personal.

You can edit, replace or remove any tab part or add personal notes – all changes will be seen only by you.

Personal tabs can be accessed anytime from any device, even offline.
Learn more »
Give kudos to tab author, rate the tab!
1 2 3 4 5
comments
print report bad tab
3 comments total.
+1 reply
kav101 20 Jun 23, 2009 08:51 AM

Good tab, jus easier to play nearer the nut i reckon. Jus my preference though!

-----0---------0----------0---------0---------|
----------------------------------------------|
-------2--0h1----------------2-0h1------------|
--2-------------------0h2------------------0--|
------------------0h2------------------0h2----|
----------------------------------------------|

0 reply
hyphensprint 303 May 23, 2013 08:07 AM

Yeah, you are right. Back when I made this I was a little naive.

0 reply
hyphensprint 303 May 23, 2013 08:08 AM

yeah, you are right. I posted this years ago and didn't realize how much easier that is.

guest
You may want to rate the tab now too:
select rating
Wanna post a correction for this tab? Suggest correction