Oops, an error
Loading. Please wait.

Hurt Like Mine Tab

version 3
version 3

Whole song

1,356 views 12 this week
no commentswrite comment
1 2 3 4 5
excellent!
x 3
add to favorites
launch autoscroll
font size
0
reset
how to read this tab
guitar tuner
Tab Pro tools
  • play this tab
  • loop segment
  • change instrument
  • show fretboard
  • metronome
×
Best way to learn
"Hurt Like Mine"
Autoscroll
slow
fast
+/-
esc
set tempo
stop
Contributor
Difficulty
intermediate
                                  ~~~~~~~~~~~~~~~~~~~~~~~~~~~~~~~~~~~~~~~~
                                               Hurt Like Mine
                                               The Black Keys
                                               Thickfreakness
                                  ~~~~~~~~~~~~~~~~~~~~~~~~~~~~~~~~~~~~~~~~
Tabbed by: Connor O.
Tuning: Standard


Another song based around the E-minor pentatonic scale. This one works off the
whole A7 (x02223) to B7 (x04445) transition that you'll hear in "Have Mercy on Me" 
and "Do the Rump" and probably a few other Junior Kimbrough songs I don't know 
about. 

I just want to say one thing. There's definitely a variation in the main riff
throughout the song. For example, see 0:30 and 0:33. There is clearly a difference
between the two if you listen closely. This variation continues throughout the 
entire song, no doubt, but I could only stand to tab it out up to 1:00. Too much 
work. Play the riff whichever way pleases you.


Comment with ideas/corrections. Please rate my tab



Key:
where # represents a fret number

#h# - hammer
#p# - pull
/ \ - slides, up and down respectively.
#b# - bend from normal note up to achieve bended note.
#r# - release bend from bended note to normal note.
#b  - curl (a small bend)
(#) - optional note. not played on the record.



Intro:


  0:00

e|-----------------------------------|
B|-----------------------------------|
G|-----2-2-2--2-0h1------------------|
D|-----------------------------------|
A|-----------------------------------|
E|-0---------------------------------|



Bridge:


  0:13

e|-----0-------------0---------------|
B|-----------------------------------|
G|---------2---0---------------------| X3
D|---------------2-------0-----0h2---|
A|-------------------------2---------|
E|-0---0---0---0---0---0---0---0-----|


  0:22

e|-----0-------------0---------------|
B|-----------------------------------|
G|---------2---0---------------------| 
D|---------------2-------0-----------|
A|-------------------------2-------0-|
E|-0---0---0---0---0---0---0---3b----|



Verse 1:


  0:25
  How you hurt me
e|-----3-----------3-----------------|
B|-----2-----------------------------|
G|-----2-----------------------------|
D|-----2-------------------2---------|
A|(0)--0---0---0---0-----------0---0-|
E|---------------------3b------------|


  0:28
  Oh how you, cause me pain
e|-3---------------------------------|
B|-2---------------------------------|
G|-2---------------------------------|
D|-2-------------------0-------------|
A|-0---0---0---0---------------------|
E|-----------------3b----------------|


  0:30

e|-----0-------------0---------------|
B|-----------------------------------|
G|---------2---0---------------------| 
D|---------------2-------0-----0h2---|
A|-------------------------2---------|
E|-0---0---0---0---0---0---0---0-----|


  0:33

e|-------------------0---------------|
B|-----------------------------------|
G|---------2---0h1-------------------| 
D|-----------------------0-----0h2---|  X2
A|-------------------------2---------|
E|-0---0---0---0---0---0---0---0-----|


  0:38
                                 Well
e|-----0-------------0---------------|
B|-----------------------------------|
G|---------2---0h1-------------------| 
D|-------------------------0-------0-| 
A|---------------------------------0-|
E|-0---0---0---0---0---0-------3b----|


  0:41
  Hurt Like mine
e|-5-------7---5---7-----------------|
B|-4---------------------------------|
G|-4---------------------------------|
D|-4--(4)--4---4---4---4---4---5-----|
A|-0---------------------------------|
E|-----------------------------------|


  0:44
  You could never, never understand
e|---------3-------------------------|
B|---------2-------------------------|
G|---------2---------------------1---|
D|---------2-----------2-------2-2---|
A|-0--(0)--0---0---0-------------2---|
E|-------------------------3b--------|


  0:46
  Never understand
e|-----------0-----------------------|
B|-----------------------------------|
G|-2---0h1---------------------------|
D|---------------0-----0h2-----------|
A|-----------------2-----------------|
E|---------0---0---0---0---0---------|



Bridge:


  0:49

e|-0-------------0-------------------|
B|-----------------------------------|
G|-----2---0h1-----------------------| 
D|---------------------0-------0-----|
A|---------------------------------0-|
E|-0---0---0---0---0-------3---------|



Verse 2:


  0:52
  I remember                      The tears were in my eyes
e|-----3---------------0---3------------------------------------------|
B|-----2-----------0h2-----------------------------3p0----------------|
G|-----2-----------------------------------------------2p0------------|
D|-----2---------------------------------------------------2----------|
A|(0)--0---0---0---0---0---0---0---0---0---0---0---0---0---0----------|
E|--------------------------------------------------------------------|


  0:57

e|-----0-------------0---------------|
B|-----------------------------------|
G|---------2---0h1-------------------| 
D|-----------------------0-----0h2---|
A|-------------------------2---------|
E|-0---0---0---0---0---0---0---0-----|


  1:00

e|-----0-------------0---------------|
B|-----------------------------------|
G|---------2---0h1-------------------| 
D|-------------------------0-------0-| 
A|-----------------------------2-----|
E|-0---0---0---0---0---0-------------|


  1:02
  River town is burnin'               The clouds, they roll on by
e|-5-----------------------5---------------3--------------------------|
B|-4-----------------------4---------------2--------------------------|
G|-4-----------------------4---0-----------2--------------------------|
D|-4--(4)--4---4---4---4---4---0-----------2-------------------2------|
A|---------------------------------0--(0)--0---0---0---0--------------|
E|---------------------------------------------------------3b------0--|


  1:07
                       Roll on by
e|-----0-------------0---------------|
B|-----------------------------------|
G|---------2---0---------------------| 
D|---------------2-------0-----0h2---| 
A|-------------------------2---------|
E|-0---0---0---0---0---0---0---0-----|


  1:10

e|-----0-------------0---------------|
B|-----------------------------------|
G|---------2---0h1-------------------| X2
D|-----------------------0-----0h2---| 
A|-------------------------2---------|
E|-0---0---0---0---0---0---0---0-----|


  1:15

e|-----0-------------0---------------|
B|-----------------------------------|
G|---------2---0h1-------------0-----| 
D|-----------------------0-----0-----| 
A|-------------------------2---------|
E|-0---0---0---0---0---0---0---------|



Intro Bit/Bridge:


  1:18

e|-----------------------------------|
B|-----------------------------------|
G|-----2-2-2--2-0h1------------------|
D|-----------------------------------|
A|-----------------------------------|
E|-0---------------------------------|


  1:21

e|-----0-------------0---------------|
B|-----0-------------0---------------|
G|---------2---0h1-------------------| 
D|-----------------------0-----0h2---| X3
A|-------------------------2---------|
E|-0---0---0---0---0---0---0---0-----|


  1:29

e|-----0-----------------------------|
B|-----0---------------3p0-----------|
G|---------2---0h1---------2p0-------| 
D|-----------------------------2-----| 
A|-----------------------------------|
E|-0---0---0---0---0---0---0---0-----|



Solo 1:


  1:32

e|---------0---3-------3/5~\3--------------0---3----------------------|
B|-----0h2-----------------------------0h2-------------3p0------------|
G|---------------------------------------------------------2p0--------|
D|-----------------------------2-------------------------------2------|
A|-0---0---0---0---0---0---0-------0---0---0---0---0---0---0---0------|
E|--------------------------------------------------------------------|


  1:37

e|-----0-------------0---------------|
B|-----0-------------0---------------|
G|---------2---0h1-------------------| 
D|-----------------------0-----0h2---| 
A|-------------------------2---------|
E|-0---0---0---0---0---0---0---0-----|

 
  1:40
                     ! (let ring)
e|-----0-------------0---------------|
B|-----0-------------0---------------|
G|---------2---0h1-------------------| 
D|-------------------------0-----2/4-| 
A|-----------------------------------|
E|-0---0---0---0---0---0-------3-----|


  1:43

e|-5---5-------7---5---------------3-------5-3------------------------|
B|-4-------------------------------2---0h2----------------------------|
G|-4-------------------------------2-------------------2~~p~~0--------|
D|-4---4---4---4---4---4-------0h2-2-------------------0-------2------|
A|------------------------------------(0)-(0)-(0)-(0)-(0)-(0)-(0)-----|
E|-------------------------3------------------------------------------|



Bridge:


  1:48

e|-------------------0---------------|
B|-------------------0---------------|
G|---------2---0h1-------------------| 
D|-----------------------0-----0h2---| 
A|-------------------------2---------|
E|-0---0---0---0---0---0---0---0---0-|


  1:50
                             She said
e|-0-------------0-------------------|
B|-0-------------0-------------------|
G|-----2---0h1-----------------------| 
D|---------------------0-------0-----|
A|---------------------------------0-|
E|-0---0---0---0---0-------3---------|



Verse 3:


  1:54
  "I'm alright..................if"
e|-----3-----------3-----------------|
B|-----2-----------2-----------------|
G|-----2-----------2-----------------|
D|-----2-----------2-----0h2---------|
A|(0)--0---0---0---0-----------0--(0)|
E|---------------------3-------------|


  1:56
  "you're hangin' on"
e|-3---------------------------------|
B|-2---------------------------------|
G|-2---------------------------------|
D|-2-----------------0h2-------------|
A|-0---0---0---0---------------------|
E|-----------------3-----------------|
                     !!! - 0h2 is quicker here

  1:58

e|-----0-------------0---------------|
B|-----0-------------0---------------|
G|---------2---0h1-------------------| 
D|-----------------------0-----0h2---| 
A|-------------------------2---------|
E|-0---0---0---0---0---0---0---0-----|


  2:01

e|-----0-------------0---------------|
B|-----0-------------0---------------|
G|---------2---0h1-------------------| 
D|-------------------------0-------0-| 
A|-----------------------------------|
E|-0---0---0---0---0---0-------3-----|


  2:03
           Be your shoulder                Lay your troubles on
e|---------5-----------7---5---------------3--------------------------|
B|---------4-------------------------------2--------------------------|
G|---------4-------------------0-----------2--------------------------|
D|-4--(4)--4---4---4---4---4---0-----------2-------------------0h2----|
A|---------------------------------0--(0)--0---0---0---0--------------|
E|---------------------------------------------------------3----------|


  2:08
                         Your troubles on
e|-----0-------------0---------------|
B|-----0-------------0---------------|
G|---------2---0h1-------------------| 
D|-----------------------0-----0h2---| 
A|-------------------------2---------|
E|-0---0---0---0---0---0---0---0-----|


  2:11
                     ! (Let Ring a bit)
e|-----0-------------0---------------|
B|-----0-------------0---------------|
G|---------2---0h1---------2---0h1---| 
D|-----------------------------------| 
A|-----------------------------------|
E|-0---0---0---0---0---0---0---0-----|


  2:14
                     
e|-----0-------------0---------------|
B|-----0-------------0---------------|
G|---------2---0h1-------------------| 
D|-----------------------0-----0h2---| 
A|-------------------------2---------|
E|-0---0---0---0---0---0---0---0-----|


  2:16

e|-----0-------------0---------------|
B|-----0-------------0---------------|
G|---------2---0h1-------------------| 
D|-----------------------0-----------| 
A|-------------------------2~p~0-----|
E|-0---0---0---0---0---0---0---0-----|



Intro Bit/Bridge:


  2:19

e|-----------------------------------|
B|-----------------------------------|
G|-----2-2-2--2-0h1------------------|
D|-----------------------------------|
A|-----------------------------------|
E|-0---------------------------------|


  2:22
                     
e|-----0-------------0---------------|
B|-----0-------------0---------------|
G|---------2---0h1-------------------| X3
D|-----------------------0-----0h2---| 
A|-------------------------2---------|
E|-0---0---0---0---0---0---0---0-----|


  2:30

e|-----0-------------0---------------|
B|-----0-------------0---------------|
G|---------2---0h1-------------------| 
D|-----------------------0-----------| 
A|---------------------------------0-|
E|-0---0---0---0---0---0---3---4-----|



Solo 2:


  2:32

e|---------0---3---------------------------0---3/5\3p0----------------|
B|-----0h2-----------------------------0h2----------------------------|
G|-----------------------------------------------------2~~p~~0--------|
D|-----------------------------0h2-----------------------------2------|
A|-----0---0---0---0---0-----------0---0---0---0---0---0---0---0------|
E|-------------------------3------------------------------------------|


  2:37

e|-----0-------------0---------------|
B|-----0-------------0---------------|
G|---------2---0h1-------------------| X2
D|-----------------------0-----0h2---| 
A|-------------------------2---------|
E|-0---0---0---0---0---0---0---0-----|


  2:43

e|---------0---3~~p~~0---------------------0---3/5---5/7---3---0------|
B|-----0h2-------------3p0-------------0h2---------------------0------|
G|-------------------------2p0----------------------------------------|
D|-----------------------------2--------------------------------------|
A|-0---0---0---0---0---0---0---0---0---0---0---0---0---0---0---0------|
E|--------------------------------------------------------------------|


  2:48

e|-----0-------------0---------------|
B|-----0-------------0---------------|
G|---------2---0h1-------------------| 
D|-----------------------0-----0h2---| 
A|-------------------------2---------|
E|-0---0---0---0---0---0---0---0-----|


  2:51
 
e|-----0-------------0---------------|
B|-----0-------------0---------------|
G|---------2---0h1-------------------| 
D|-------------------------0-----2/4-| 
A|-----------------------------------|
E|-0---0---0---0---0---0-------3-----|


  2:53

e|-5---5---7---5-------------------3-------0---3/5\3p0----------------|
B|-4-------------------0-----------2---0h2-------------3p0------------|
G|-4-------------------0-----------2-----------------------2p0--------|
D|-4---4---4---4---4-----------0h2-2---------------------------2------|
A|-------------------------------------0---0---0---0---0---0---0------|
E|-------------------------3------------------------------------------|


  2:59

e|-----0-------------0---------------|
B|-----0-------------0---------------|
G|---------2---0h1-------------------| 
D|-----------------------0-----0h2---| X3
A|-------------------------2---------|
E|-0---0---0---0---0---0---0---0-----|


  3:06

e|-----0-------------0---------------|
B|-----0-------------0---------------|
G|---------2---0h1-------------------| 
D|-------------------------0-------0-| 
A|-----------------------------2-----|
E|-0---0---0---0---0---0-------------|



Outro:


  3:09

e|-----------------------------------|
B|-----------------------------------|
G|-----2-2-2--2-0h1------------------|
D|-----------------------------------|
A|-----------------------------------|
E|-0---------------------------------|


  3:11
                     
e|-----0-------------0---------------|
B|-----0-------------0---------------|
G|---------2---0h1-------------------| X3
D|-----------------------0-----0h2---| 
A|-------------------------2---------|
E|-0---0---0---0---0---0---0---0-----|


  3:19

e|-----0-------------0---------------|
B|-----0-------------0---------------|
G|---------2---0h1-------------------| 
D|-----------------------0-----------| 
A|-------------------------2p0-------|
E|-0---0---0---0---0---0-------0-----|

comments
We did not receive enough feedback on this tab! Please rate:
print report bad tab
1 2 3 4 5
I want to post or [tab]
guest
You may want to rate the tab now too:
select rating
Please do not post tabs as comments. Select "correction" instead!