Oops, an error
Loading. Please wait.
We have an official I Got Mine tab made by UG professional guitarists. Check out the tab »
×

I Got Mine bass

version 2
version 2

Whole song

  • Complete with all the parts, more accurate from my guitar pro file.

Interactive

106 views 21 this week
no commentswrite comment
1 2 3 4 5
3 more votes to show rating
add to favorites
×
Save as Personal and add changes to this tab that will be seen only by you. Learn more ›
×
You can save this tab as Personal to edit and correct it or add notes. All changes will be seen only by you. Learn more »
launch autoscroll
font size
0
reset
guitar tuner
backing track
0:00
0:00
edit
Autoscroll
slow
fast
+/-
esc
set tempo
stop
About this tab version
Complete with all the parts, more accurate from my guitar pro file. Was this info helpful? Yes No
----------------------------------------------------------------------------------------------------
                           The Black keys - I Got Mine
----------------------------------------------------------------------------------------------------

Album : Attack & Release (2008)
Tempo : 77
E-mail: gwendal.mollo@orange.fr
Tabbed by: newg    (http://profile.ultimate-guitar.com/newg/)

Check my guitar pro/powertab/tab/chords for more

There is a lot of triplet feel here, i just write "/" for represent them in the first riff.
It's a different postition to play it, you can play like the guitar on the fret 5/7 too

[Intro]
G|----------------------------|----------------------------|-------|
D|----------------------------|----------------------------|-------|
A|----------------------------|----------------------------|-------|
E|--7--------7--6--5----------|--5--4--3--------2----------|--1----|


       /  /        /  / /  / /  /  /  /        /  /        /  / /  / /  /
G|-------------------------0-2--0--------|--------------------------------------|
D|-----2--0-2------2--0-2----------2--2--|-----2--0-2------2--0-2--0------------|
A|---------------------------------------|--------------------------------------|
E|--0-----------0------------------------|--0-----------0------------3--5-3-----| x4

[Verse]
G|-------------------------0-2--0--------|--------------------------------------|
D|-----2--0-2------2--0-2----------2--2--|-----2--0-2------2--0-2--0------------|
A|---------------------------------------|--------------------------------------|
E|--0-----------0------------------------|--0-----------0------------3--5-3-----| x4


[Chorus]
G|---------------|
D|---------------|
A|---------------|
E|--0--3--5--7---| x3

G|---------------------|
D|---------------------|
A|-12-0-10-0-7---------|
E|---------------------|


G|-------------------------0-2--0--------|--------------------------------------|
D|-----2--0-2------2--0-2----------2--2--|-----2--0-2------2--0-2--0------------|
A|---------------------------------------|--------------------------------------|
E|--0-----------0------------------------|--0-----------0------------3--5-3-----| x2


[Verse]
G|-------------------------0-2--0--------|--------------------------------------|
D|-----2--0-2------2--0-2----------2--2--|-----2--0-2------2--0-2--0------------|
A|---------------------------------------|--------------------------------------|
E|--0-----------0------------------------|--0-----------0------------3--5-3-----| x4


[Chorus]
G|---------------|
D|---------------|
A|---------------|
E|--0--3--5--7---| x3

G|---------------------|
D|---------------------|
A|-12-0-10-0-7---------|
E|---------------------|

[Bridge]

mute the bass for 14 bars 

G|----------------------------|
D|----------------------------|
A|--------7-----------5--6----|
E|--7--------------7----------| x4

G|-------------------------0-2--0--------|--------------------------------------|
D|-----2--0-2------2--0-2----------2--2--|-----2--0-2------2--0-2--0------------|
A|---------------------------------------|--------------------------------------|
E|--0-----------0------------------------|--0-----------0------------3--5-3-----| x2


[Chorus]
G|---------------|
D|---------------|
A|---------------|
E|--0--3--5--7---| x3

G|---------------------|
D|---------------------|
A|-12---10---7---------|
E|---------------------|

G|-------------------------0-2--0--------|--------------------------------------|
D|-----2--0-2------2--0-2----------2--2--|-----2--0-2------2--0-2--0------------|
A|---------------------------------------|--------------------------------------|
E|--0-----------0------------------------|--0-----------0------------3--5-3-----| x2

[Outro]

G|----------------------------|----------------------------|-------|
D|----------------------------|----------------------------|-------|
A|----------------------------|----------------------------|-------|
E|--7--------7--6--5----------|--5--4--3--------2----------|--1----|

            
            
Suggest correction
Creating personal tab
Creating personal tab
You can edit any tab online and save it as your Personal.

You can edit, replace or remove any tab part or add personal notes – all changes will be seen only by you.

Personal tabs can be accessed anytime from any device, even offline.
Learn more »
Give kudos to tab author, rate the tab!
1 2 3 4 5
comments
print report bad tab
guest
You may want to rate the tab now too:
select rating
Wanna post a correction for this tab? Suggest correction