Oops, an error
Loading. Please wait.

I Got Mine Tab

version 3
version 3

Interactive

3,924 views 1 this week
1 commentread comment
1 2 3 4 5
not so good
x 4
add to favorites
launch autoscroll
font size
0
reset
how to read this tab
guitar tuner
Tab Pro tools
  • play this tab
  • loop segment
  • change instrument
  • show fretboard
  • metronome
×
Best way to learn
"I Got Mine"
Autoscroll
slow
fast
+/-
esc
set tempo
stop
Difficulty
intermediate
-------------------------------------------------------------------------------
                             I Got Mine - The Black Keys
-------------------------------------------------------------------------------
Tabbed by:ryann
Email:

Tuning:Standard


Intro:

e|---------------------------|
B|---------------------------|
G|-8---8-7-6---6-5-4---3--2--|
D|-9---9-8-7---7-6-5---4--3--|
A|-9---9-8-7---7-6-5---4--3--|
E|-7---7-6-5---5-4-3---2--1--|

Main Riff:

e|---------------------------|-----------------------------|
B|---------------------------|-----------------------------|
G|---------------------------|-----------------------------|
D|-----------------5-7bp5-----|----------------------------|
A|---7-5-7---7-5-7-------7--|---7-5-7---7-5-7--------------|
E|-0-------0-----------------|-0------0--------3-5-3-0-----|

Chorus Riff: up stroke the high notes

e|----------------2------| repeat 3 or 4 times
B|----------------2------|
G|-----------------------|
D|-----------------------|
A|-----------------------|
E|-0---3----5b-----------|

Outro:

e|-----------------------------|
B|-----------------------------|
G|-8---8-7-6---6-5-4----3---2--|
D|-9---9-8-7---7-6-5----4---3--|
A|-9---9-8-7---7-6-5----4---3--|
E|-7---7-6-5---5-4-3----2---1--|


************************************

| /   slide up
| \   slide down
| h   hammer-on
| p   pull-off
| ~   vibrato
| +   harmonic
| x   Mute note
| b   Bend
| pb  Pre-bend
| br  Bend release
| pbr Pre-bend release
| brb Bend release bend

************************************
comments
print report bad tab
1 comment total.
0 reply
indie_nation wrote on August 13 2010, 04:24 pm

you clearly copied most of this from my tab with some minor editing such as removing the hammer on / pull off notation in the main riff, the intro / outro has been copied directly, the chorus is clearly your own work but the rest is a cheap copy of my tab.....

I want to post or [tab]
guest
You may want to rate the tab now too:
select rating
Please do not post tabs as comments. Select "correction" instead!