Oops, an error
Loading. Please wait.

Keep Your Hands Off Her tab

version 3
version 3

Whole song

11,430 views 27 this week
3 commentsread comments
1 2 3 4 5
x 10
add to favorites
×
Save as Personal and add changes to this tab that will be seen only by you. Learn more ›
×
You can save this tab as Personal to edit and correct it or add notes. All changes will be seen only by you. Learn more »
launch autoscroll
font size
0
reset
how to read this tab
guitar tuner
edit
Autoscroll
slow
fast
+/-
esc
set tempo
stop
                                  ~~~~~~~~~~~~~~~~~~~~~~~~~~~~~~~~~~~~~~~~
                                           Keep Your Hands Off Her
                                             by: The Black Keys
                                  Chulahoma: The Songs of Junior Kimbrough
                                  ~~~~~~~~~~~~~~~~~~~~~~~~~~~~~~~~~~~~~~~~
Tabbed by: Connor O.
Tuning: Standard
Capo: 2nd (F# B E A C# F#)



There is a capo on the 2nd fret. The F# bass-line is a dead giveaway. This is 
clearly the tuning that is used in the recorded version. However, the slide solos
and fills are played on an acoustic in standard without a capo

As can be heard with the riff at 0:09, the bass-line isn't constant. It's impossible
to tell for the rest of the song though because of the drums. Many of the parts are 
played by strumming the strings (like at 0:34), and it's hard to play a bassline while
strumming. So just use a bass-line at your own discretion. Also, use delays on the 
slides to better accentuate the song and Dan's singing, e.g. hit a note let it ring a 
moment and then slide.

Comment or message any ideas or corrections. Please rate my tab. If you've got
problems with the tab, I'd encourage you to contact me with those problems so I
can fix the tab or provide advice for playing. Don't just give me a poor rating
and not give me any feedback. The idea is for us all to work together to create
a perfect finished product. This tab just represents the best I can do. It's 
definitely up for peer review.



Key:
where # represents a fret number

#h# - hammer
#p# - pull
/ \ - slides, up and down respectively.
#b# - bend from normal note up to achieve bended note.
#r# - release bend from bended note to normal note.
(#) - optional note. not played in song.



Intro:


   0:00

f#|-0-----------------------------------|
C#|---0h3-------3b4r3-0-0---3b4r3-3p0---|
A |-------------------------------------|
E |-------------------------------------|
B |-------------------------------------|
F#|-------------------------------------|



Verse 1:


   0:09

f#|-----------------------0-----------------------------------------|
C#|-----------------------0-----------------------------------------|
A |-----2/4\2p0-2/4-------4\2p0---------0h2p0---0h2~~p~~0-----------|  X3
E |-----------------------------2-------------2-------------2---0h2-|
B |-----------------------------------------------------------------|
F#|-0---0--(0)--0---0--(0)-(0)-(0)--0---0--(0)--0--(0)-(0)--0--(0)--|


   0:28
            She's all mine                       
f#|-----------------------------------------------------------------|
C#|-----------------------------------------------------------------|
A |---------0---2/4-4\2p0---------------0h2p0---0h2~~p~~0-----------|
E |-----2-----------------2-----0h2-----------2-------------2---0h2-|
B |-----------------------------------------------------------------|
F#|-0---0---0---0---0---0---0---0---0---0---0---0---0---0---0---0---|


   0:34
            She's   mi~~ine all     mine    all    mine
f#|---------0-------0---0-------------------------------------------|
C#|---------3/5-----3---0---0-------0-------------------------------|
A |-------------------------2/4-----2~p~0---0h2----2~p~0------------|
E |---------------------------------------2---------------2-----0h2-|
B |-----------------------------------------------------------------|
F#|-0---0---0---0---0---0---0---0---0---0---0---0---0---0---0---0---|




f#|-----------------------------------------------------------------|
C#|-----------------------------------------------------------------|
A |------0h2p0---0h2~~p~~0------------------------------------------|
E |------------2-------------2---0h2--------------------------------|
B |-----------------------------------------------------------------|
F#|--0---0---0---0---0---0---0---0----------------------------------|


   0:44
        I   love  the way she walks,           yea      she walks good  
f#|---------------------0-------------------------------------------|
C#|---------3/5---5\3---0-------------------------------------------|
A |-------------------------2~p~0-----------------------------------|
E |-------------------------------2-------------2-------0---2---0h2-|
B |-----------------------------------------------------------------|
F#|-0---0---0---0---0---0---0---0---0---0---0---0---0---0---0---0---|




f#|-----------------------------------------------------------------|
C#|-----------------------------------------------------------------|
A |------0h2p0---0h2~~p~~0------------------------------------------|
E |------------2-------------2---0h2--------------------------------|
B |-----------------------------------------------------------------|
F#|--0---0---0---0---0---0---0---0----------------------------------|
                            

   0:53
        I   love  the way she talks, awww yea               she talks good
f#|---------------------0-----------------------------------------------------------|
C#|---------3/5---5\3---0-----------------------------------------------------------|
A |-------------------------2~p~0---0---2/4-4\2~~p0---------------------------------|
E |-------------------------------2-----------------2-------0---2---0h2-------------|
B |---------------------------------------------------------------------------------|
F#|-0---0---0---0---0---0---0---0---0---0---0---0---0---0---0---0---0---0---0-------|




f#|-----------------------------------------------------------------|
C#|-----------------------------------------------------------------|
A |------0h2p0---0h2~~p~~0------------------------------------------|
E |------------2-------------2---0h2--------------------------------|
B |-----------------------------------------------------------------|
F#|--0---0---0---0---0---0---0---0----------------------------------|

                                     
   1:03
        Keep  your  hands   off of  my  girl
f#|-----0-----0-----0-------0---0---0-----------------------------------------------|
C#|-----3/5---5-----5-------3---0---3-----------------------------------------------|
A |-------------------------0---4---0---2---------------0h2p0---0h2~~p~~0-----------|
E |-----------------------------------------------------------2-------------2---0h2-|
B |---------------------------------------------------------------------------------|
F#|-0---0---0---0---0---0---0---0---0---0---0---0---0---0---0---0---0---0---0---0---|
                     

   1:11
        She                 don't belong to you 
f#|-----0---------------------------------------------------------------------------|
C#|-----0---------------------------------------------------------------------------|
A |-2 ---2/4-----------------2---0---4\2~~p0-------------0h2p0---0h2~~p~~0----------|
E |-----------------------------------------2---0h2-----------2-------------2---0h2-|
B |---------------------------------------------------------------------------------|
F#|-0---0---0---0---0---0---0---0---0---0---0---0---0---0---0---0---0---0---0---0---|
       

   1:18

f#|-----------------------0-----------------------------------------|
C#|-----------------------0-----------------------------------------|
A |-----2/4\2p0-2/4-------4\2p0---------0h2p0---0h2~~p~~0-----------|  X2
E |-----------------------------2-------------2-------------2---0h2-|
B |-----------------------------------------------------------------|
F#|-0---0--(0)--0---0--(0)-(0)-(0)--0---0--(0)--0--(0)-(0)--0--(0)--|



Solo 1:


  1:29               

e|-------------------------------5----------------------------------|
B|----------5-----5----5/7---------7-5------------------------------|
G|---4/6-------6-----------------------6-2/4---2/4-2-2/4--6\2-------|
D|---------------------------------------2/4-----------------2/4----|
A|------------------------------------------------------------------|
E|------------------------------------------------------------------|


  1:46  
                     
e|------------------------------------------------------------------|
B|------------------------------------------------------------------|
G|--4/6-2-2/4----2-4-2--------2-2/4-2-------------------------------|
D|--------------4-----4-4----4-------4-2-----2-2/4------------------|
A|-----------------------------------------4------------------------|
E|------------------------------------------------------------------|



Verse 2:


   1:55
   Love her, love her, love her                                         *       Play Twice        *
f#|---------0-------0---0---------------------------------------------------------------------------|
C#|---------3/5-----3---0---0-------0---------------------------------------------------------------|
A |-------------------------2/4-----2~p~0---0h2----2~p~0----------------0h2p0---0h2~~p~~0-----------|
E |---------------------------------------2---------------2-------------------2-------------2---0h2-|
B |-------------------------------------------------------------------------------------------------|
F#|-0---0---0---0---0---0---0---0---0---0---0---0---0---0---0---0---0---0---0---0---0---0---0---0---|


   2:07                                                       
   Love her, love her, love her                                         
f#|---------0-------0---0---------------------------------------------------------------------------|
C#|---------3/5-----3---0---0-------0---------------------------------------------------------------|
A |-------------------------2/4-----2~p~0---0h2----2~p~0----------------0h2p0---0h2~~p~~0-----------|
E |---------------------------------------2---------------2-------------------2-------------2---0h2-|
B |-------------------------------------------------------------------------------------------------|
F#|-0---0---0---0---0---0---0---0---0---0---0---0---0---0---0---0---0---0---0---0---0---0---0---0---|


   2:19                                                   
        Keep  your  hands   off of  that girl
f#|-------------------------------------0-----0-----0-------0---0---0-------------------------------|
C#|-------------------------------------3/5---5-----5-------3---0---3-------------------0---0---0---|
A |-----------0---------0h2---0-----------------------------0---4---0---2---------------2---2---2---|
E |-----0h2---------------------2-------------------------------------------------------------------|
B |-------------------------------------------------------------------------------------------------|
F#|-0---0---0---0---0---0---0---0---0---0---0---0---0---0---0---0---0---0---0---0---0---0---0---0---|
        

   2:25
        She                 don't belong to you 
f#|-----0-------0-------------------------------------------------------------------|
C#|-----0-------0-------------------------------------------------------------------|
A |-----2/4-----4-----------2---0---4\2~~p0-------------0h2p0---0h2~~p~~0-----------|
E |-----------------------------------------2---0h2-----------2-------------2---0h2-|
B |---------------------------------------------------------------------------------|
F#|-0---0---0---0---0---0---0---0---0---0---0---0---0---0---0---0---0---0---0---0---|
       


Solo 2:


  2:32

e|---------------------------------------------------------------------------------|
B|-----5------5/7----------5-------------------------------------------------------|
G|-4/6-----------------4h6--------2/4------2/4------2/4------2/4-2-----------------|
D|---------------------------------------------4--------4----------4-4-------------|
A|---------------------------------------------------------------------------------|
E|---------------------------------------------------------------------------------|


  2:52                                          
                                                 (w/o slide)
e|---------------------------------------------------------------------------------|
B|---------------------------------------------------------------------------------|
G|----------------2/4\2------------------------------------------------------------| 
D|-2---2-2/4---------------2---2/4----------------2--2h4---------------------------|
A|---4------------------4----------------------------------------------------------|
E|---------------------------------------------------------------------------------|
Suggest correction
Creating personal tab
Creating personal tab
You can edit any tab online and save it as your Personal.

You can edit, replace or remove any tab part or add personal notes – all changes will be seen only by you.

Personal tabs can be accessed anytime from any device, even offline.
Learn more »
comments
print report bad tab
3 comments total.
0 reply
coman91 1,531 Sep 09, 2013 06:04 AM

Extensive revision in the works as of 09/09/2013. Hope to be done with it by tonight or tuesday night.

0 reply
keko1979 10 Dec 13, 2013 08:15 AM

Great tab man, keep working like that

0 reply
nikh158 20 Jul 25, 2014 12:04 PM

Perfect. Cheers.

guest
You may want to rate the tab now too:
select rating
Wanna post a correction for this tab? Suggest correction