Oops, an error
Loading. Please wait.

Lies Tab

53,711 views 48 this week
6 commentsread comments
1 2 3 4 5
accurate
x 15
add to favorites
launch autoscroll
font size
0
reset
how to read this tab
guitar tuner
Tab Pro tools
  • play this tab
  • loop segment
  • change instrument
  • show fretboard
  • metronome
×
Best way to learn
"Lies"
Autoscroll
slow
fast
+/-
esc
set tempo
stop
Contributor
Difficulty
novice
-------------------------------------------------------------------------------
                             Lies - Black Keys
-------------------------------------------------------------------------------
Tabbed by: himktr3000
Email: himktr3000@gmail.com

Tuning:Standard

Hey this is my first tab. I decided to do a simple one from one of my favorite
bands. The Black Keys!

Intro
e|-------------------------------------------------------|
B|-------------------------------------------------------|
G|--6-6-6----------------3h5p3-----------4/7-\-6-\-5-----|
D|--8-8-8--7-\-6-------5-------5---------5/8-\-7-\-6-----|
A|--8-8-8--7-\-6-----5----------5----5---5/8-\-7-\-6-----|
E|-----------------3---------------3---------------------|

e|---------------------------------------|
B|---------------------------------------|
G|-------3h5p3-------------3h5p3---------|
D|-----5-------5---------5-------5-------|
A|---5-----------55----5-----------55----|
E|-3-----------------3-------------------|

Verse
e|-----------------------------------------------------------------5~----|
B|----------------------------6h8p6--------------------------------6~----|
G|--------3h5p3-------------7-------7----------3h5p3------------7--7~----|
D|------5-------5---------7----------7-------5-------5--------7----------|
A|----5-----------5p3---5------------------5-----------5p3--5------------|
E|--3------------------------------------3-------------------------------|

e|------------------------------------------------|
B|------------------------------------------------|
G|----------8h10p8----------------8h10p8----------|
D|-------10--------10----------10--------10-------|
A|----10--------------10----10--------------10----|
E|--8---------------------8-----------------------|

e|--------------------------------------|
B|--------------------------------------|
G|--------3h5p3------------3h5p3--------|
D|------5-------5--------5-------5------|
A|----5-----------5----5-----------5----|
E|--3----------------3------------------|
e|------------------------------------------------|
B|------------------------------------------------|
G|----------8h10p8----------------8h10p8----------|
D|-------10--------10----------10--------10-------|
A|----10--------------10----10--------------10----|
E|--8---------------------8-----------------------|

e|--------------------------------------|
B|--------------------------------------|
G|--------3h5p3------------3h5p3--------|
D|------5-------5--------5-------5------|
A|----5-----------5----5-----------5----|
E|--3----------------3------------------|

Chorus
e|-------------------------------------------------------|
B|-------------------------------------------------------|
G|--------7--7--7--7-10-7--5--7-7-7--5-------------------|
D|--5--5--7--7--7--7-10-7--5--7-7-7--5-------------------|
A|--5--5--5--5--5--5-8--5--3--5-5-5--3---5-5-5--8--10----|
E|--3--3-------------------------------------------------|

Bridge
e|----------------------------------------------------------------------------|
B|----------------------------------------------------------------------------|
G|--------3h5p3----------4/7-7--\-6-\-5--------3h5p3-----------3h5p3----------|
D|------5-------5--5-----5/8-8--\-7-\-6------5-------5-------5-------5--------|
A|----5-----------5------5/8-8--\-7-\-6----5-----------5---5-----------5------|
E|--3------------------3-----------------3---------------3---------------3----|

Solo - First Lead played with slide
e|--3-/-6-/-10-/-15---/---18-\gradually slide all the way down----|
B|----------------------------------------------------------------|
G|----------------------------------------------------------------|
D|----------------------------------------------------------------|
A|----------------------------------------------------------------|
E|----------------------------------------------------------------|

Solo - Second Lead Guitar also played with slide
e|------------------------------------------------------------------------|
B|------------------------------------------------------------------------|
G|--/15\14slide back and forth about 8 times--14\gradually slide down ----|
D|------------------------------------------------------------------------|
A|------------------------------------------------------------------------|
E|------------------------------------------------------------------------|

End Slide Section fast alternate picking throughout
e|-----------------------------------------------------------------------|
B|-----------------------------------------------------------------------|
G|--0-/-3-/-7-/-12-/-15\14
                                        
comments
print report bad tab
6 comments total. Showing first comments.
0 reply
chnosp wrote on December 17 2009, 10:03 am

Great tab mate! Such a good song...

0 reply
wraith313 wrote on May 19 2010, 11:29 pm

Great tab man. Ive been wanting to learn this song for a while. Dont want to sound like an idiot here, but I gotta ask: What do you guys recommend as far as the fingering goes on the chorus and that part in the verse when he arpeggiates the chord with the hammers? Ive been basically making it like a power chord with full barre and then moving fingers to do a hammer on, but that seems wrong.

0 reply
HIMKTR3000 wrote on May 29 2010, 10:59 pm

For the verse I either use my thumb on the low e or i just switch the string my index finger is on

I want to post or [tab]
guest
You may want to rate the tab now too:
select rating
Please do not post tabs as comments. Select "correction" instead!