Oops, an error
Loading. Please wait.

Lonely Boy Bass Tab

version 3
version 3

Whole song

Interactive

35,013 views 105 this week
5 commentsread comments
1 2 3 4 5
accurate
x 19
add to favorites
launch autoscroll
font size
0
reset
guitar tuner
Tab Pro tools
  • play this tab
  • loop segment
  • change instrument
  • show fretboard
  • metronome
×
Best way to learn
"Lonely Boy"
Autoscroll
slow
fast
+/-
esc
set tempo
stop
Contributor
Difficulty
novice
-------------------------------------------------------------------------------
                             LONELY BOY - The Black Keys
-------------------------------------------------------------------------------

Tabbed By : Matt Ellig
e-mail : matt.ellig@gmail.com

Tuning : Standard (EADG)

Very simple but fun to play along with; great for beginners! Only part that really differs
is the missing hammer-on in the 3rd rep of the 1st verse.


~ Intro ~

G|-------------------|
D|-------------------|
A|---R---E---S---T---| (x8)
E|-------------------|

G|-------------------|-------------------|-------------------|-------------------|
D|-------------------|-------------------|-------------------|-------------------|
A|-------------------|-------------------|-------------------|-------------------|
E|-----0-------0-----|-----0-------0-----|-----5-------5-----|-----5-------5-----|

G|-------------------|-------------------|-------------------|-------------------|
D|-------------------|-------------------|-------------------|-------------------|
A|-------------------|-------------------|-------------------|-------------------|
E|-----0-------0-----|-----0-------0-----|-----5-------5-----|-----5---0h3-5-----|

G|-------------------|
D|-------------------|
A|---R---E---S---T---| (x8)
E|-------------------|


~ 1st Verse ~

G|-------------------|-------------------|-------------------|-------------------|
D|-------------------|-------------------|-------------------|-------------------|
A|-------------------|-------------------|-------------------|-------------------| (x2)
E|-----0-------0-----|-----0---0h3-5-----|-----3-------3-----|-----5---0h3-5-----|

G|-------------------|-------------------|-------------------|-------------------|
D|-------------------|-------------------|-------------------|-------------------|
A|-------------------|-------------------|-------------------|-------------------|
E|-----0-------0-----|-----0-------0-----|-----3-------3-----|-----5---0h3-5-----|

G|-------------------|-------------------|-------------------|-------------------|
D|-------------------|-------------------|-------------------|-------------------|
A|-------------------|-------------------|-------------------|-------------------|
E|-----0-------0-----|-----0---0h3-5-----|-----3-------3-----|-----5---0h3-5-----|


~ Chorus ~

G|-------------------|-------------------|-------------------|-------------------|
D|-------------------|-------------------|-------------------|-------------------|
A|-------------------|-------------------|-------------------|-------------------| (x4)
E|-----0-------0-----|-----0---0h3-5-----|-----3-------3-----|-----5---0h3-5-----|


~ Bridge ~

G|-------------------|
D|-------------------|
A|---R---E---S---T---| (x8)
E|-------------------|


~ 2nd Verse ~

G|-------------------|-------------------|-------------------|-------------------|
D|-------------------|-------------------|-------------------|-------------------|
A|-------------------|-------------------|-------------------|-------------------| (x4)
E|-----0-------0-----|-----0---0h3-5-----|-----3-------3-----|-----5---0h3-5-----|


Then play:
- Chorus
- Bridge
- Intro (w/out the rests)
- Chorus

And that's it!


| /  slide up
| \  slide down
| h  hammer-on
| p  pull-off
| ~  vibrato
| +  harmonic
| x  Mute note
===============================================================================
comments
print report bad tab
5 comments total. Showing first comments.
+1 reply
bassman4 wrote on July 31 2012, 09:12 pm

this is an amazing bass tabliture of Lonely Boy - Black Keys! Keep up the good work! The only suggestion I could make from a tab readers stand point is instead of writing "Then play:
- Chorus
- Bridge
- Intro (w/out the rests)
- Chorus"
Just copy and paste the parts of the tab you've already written in the order stated, it is easier to comprehend if it is "pre-tabbed" and may increase your user satisfaction. Thank You for making such an amazing tab, and keep them comming. I look forward to seeing more of your work!

-bassman4

0 reply
ChorizoTapatio wrote on June 19 2015, 12:27 am, edited at 12:28 am

This tab should be 5/5 its perfect and its exactly like the one from my guitar world magazine. However there is one problem. It should be like this

since it didnt post right it should be E: 5 0 3h5

0 reply
Ninoss123 wrote on July 29 2015, 11:42 am

didn't like this contribution

I want to post or [tab]
guest
You may want to rate the tab now too:
select rating
Please do not post tabs as comments. Select "correction" instead!