Oops, an error
Loading. Please wait.
We have an official Lonely Boy tab made by UG professional guitarists. Check out the tab »
×
590,196 views 240 this week
17 commentsread comments
1 2 3 4 5
x 165
add to favorites
×
Save as Personal and add changes to this tab that will be seen only by you. Learn more ›
×
You can save this tab as Personal to edit and correct it or add notes. All changes will be seen only by you. Learn more »
launch autoscroll
font size
0
reset
how to read this tab
guitar tuner
backing track
0:00
0:00
edit
Autoscroll
slow
fast
+/-
esc
set tempo
stop
Author
[Intro]

e|--------------------------------------------------------------------------|
B|--------------------------------------------------------------------------|
G|--------------------------------------------------------------------------|x4
D|--------------------------------------------------------------------------|
A|--------------------------------------------------------------------------|
E|---0-0-0-0-3b--0-0--0-0-0-0\(dive bomb to D on last note)------------------|


[Riff 1] (with keyboard)

e|--------------------------------------------------------------------------|
B|----5-5--5-3--------------------------------------------------------------|
G|---------------2-0-2---2-2--2-0-------------------------------------------|x2
D|----------------------------------2-0-2-----------------------------------|
A|--------------------------------------------------------------------------|
E|--------------------------------------------------------------------------|


[Riff 2]

        E E E E             E E E E          E E E E          E E E E
e|------0-0-0-0-------------0-0-0-0----------0-0-0-0----------0-0-0-0-------|
B|------0-0-0-0-------------0-0-0-0----------0-0-0-0----------0-0-0-0-------|
G|--------------------------------------------------------------------------|
D|--------------------------------------------------------------------------|
A|------------------0----------------0----------------0---------------------|
E|---0----------------3b-0-------------3b-0-------------3b-0----------------|

Note:
Although only the top two strings are played, having the E chord formed 
is good if you hit the G string. After the first chorus, there are 
variations on this pattern using the E pentatonic scale. Be creative.


[Verse]

        E E E E E     G G      A  A A A
e|------0-0-0-0-0-----3-3------5--5-5-5--------------------------------------|
B|------0-0-0-0-0-----3-3------5--5-5-5--------------------------------------|
G|-----------------------------6--6-6-6--------------------------------------|x4
D|-----------------------------7--7-7-7--------------------------------------|
A|-----------------------------7--7-7-7--------------------------------------|
E|---0-------------3--------5------------------------------------------------|

Note: On the A, alternate on down and up strokes.


[Chorus]

   E5                              G               A
e|---------------------------------3-3-3-3-3-3-3-3-5-5-5-5-5-5-5-5--|
B|---------------------------------3-3-3-3-3-3-3-3-5-5-5-5-5-5-5-5--|
G|-9-9-9-9-9-9-9-9-9-9-9-9-9-9-9-9-4-4-4-4-4-4-4-4-6-6-6-6-6-6-6-6--|x4
D|-9-9-9-9-9-9-9-9-9-9-9-9-9-9-9-9-5-5-5-5-5-5-5-5-7-7-7-7-7-7-7-7--|
A|-7-7-7-7-7-7-7-7-7-7-7-7-7-7-7-7-5-5-5-5-5-5-5-5-7-7-7-7-7-7-7-7--|
E|---------------------------------3-3-3-3-3-3-3-3-5-5-5-5-5-5-5-5--|


[Riff 2]

        E E E E             E E E            E E E            E E E E  E E
e|------0-0-0-0-------------0-0-0------------0-0-0------------0-0-0-0--0-0--|
B|------0-0-0-0-------------0-0-0------------0-0-0------------0-0-0-0--0-0--|
G|--------------------------------------------------------------------------|
D|--------------------------------------------------------------------------|
A|------------------------------------5------------5-7-5--------------------|
E|---0--------------0-3b-0-------0-3-5-3b-0-------0-----7-5-0---------------|


[Verse]

        E E E E E     G G      A  A A A
e|------0-0-0-0-0-----3-3------5--5-5-5--------------------------------------|
B|------0-0-0-0-0-----3-3------5--5-5-5--------------------------------------|
G|-----------------------------6--6-6-6--------------------------------------|x4
D|-----------------------------7--7-7-7--------------------------------------|
A|-----------------------------7--7-7-7--------------------------------------|
E|---0-------------3--------5------------------------------------------------|

Note: 
On the A, alternate on down and up strokes.


[Chorus]

   E5                              G               A
e|---------------------------------3-3-3-3-3-3-3-3-5-5-5-5-5-5-5-5--|
B|---------------------------------3-3-3-3-3-3-3-3-5-5-5-5-5-5-5-5--|
G|-9-9-9-9-9-9-9-9-9-9-9-9-9-9-9-9-4-4-4-4-4-4-4-4-6-6-6-6-6-6-6-6--|x4
D|-9-9-9-9-9-9-9-9-9-9-9-9-9-9-9-9-5-5-5-5-5-5-5-5-7-7-7-7-7-7-7-7--|
A|-7-7-7-7-7-7-7-7-7-7-7-7-7-7-7-7-5-5-5-5-5-5-5-5-7-7-7-7-7-7-7-7--|
E|---------------------------------3-3-3-3-3-3-3-3-5-5-5-5-5-5-5-5--|


[Bridge]

e|--------------------------------------------------------------------------|
B|--------------------------------------------------------------------------|
G|--------------------------------------------------------------------------|x4
D|--------------------------------------------------------------------------|
A|--------------------------------------------------------------------------|
E|---0-0-0-0-3b--0-0--0-0-0-0\(dive bomb to D on last note)------------------|


[Riff 1] (with keyboard)

e|--------------------------------------------------------------------------|
B|----5-5--5-3--------------------------------------------------------------|
G|---------------2-0-2---2-2--2-0-------------------------------------------|x2
D|----------------------------------2-0-2-----------------------------------|
A|--------------------------------------------------------------------------|
E|--------------------------------------------------------------------------|


[Chorus]

   E5                              G               A
e|---------------------------------3-3-3-3-3-3-3-3-5-5-5-5-5-5-5-5--|
B|---------------------------------3-3-3-3-3-3-3-3-5-5-5-5-5-5-5-5--|
G|-9-9-9-9-9-9-9-9-9-9-9-9-9-9-9-9-4-4-4-4-4-4-4-4-6-6-6-6-6-6-6-6--|x4
D|-9-9-9-9-9-9-9-9-9-9-9-9-9-9-9-9-5-5-5-5-5-5-5-5-7-7-7-7-7-7-7-7--|
A|-7-7-7-7-7-7-7-7-7-7-7-7-7-7-7-7-5-5-5-5-5-5-5-5-7-7-7-7-7-7-7-7--|
E|---------------------------------3-3-3-3-3-3-3-3-5-5-5-5-5-5-5-5--|


[Outro]

   E5                          
e|-------|
B|-------|
G|-9-----|
D|-9-----|
A|-7-----|
E|-0-----|


**********************************************
| b   Bend
**********************************************

            
            
Suggest correction
Creating personal tab
Creating personal tab
You can edit any tab online and save it as your Personal.

You can edit, replace or remove any tab part or add personal notes – all changes will be seen only by you.

Personal tabs can be accessed anytime from any device, even offline.
Learn more »
comments
print report bad tab
17 comments total. Showing first comments.
+11 reply
ahunter1385 10 Mar 19, 2012 07:57 PM

what does dive bomb to d mean?

+3 reply
dragon27jm 70 Mar 21, 2012 02:30 PM

It means making the note lower using a whammy bar. If you don't have one, you can bend the neck outward on that note.

+10 reply
cha33 armstrong 205 Jun 06, 2012 11:57 AM

Actually I bought a issue of total guitar magazine with the intro to this song in so I was trying to learn the rest of it so can I just say it isn't a dive bomb to D you use a pitch shifter guitar pedal and you bring the E note to a B but apart from that good tab

guest
You may want to rate the tab now too:
select rating
Wanna post a correction for this tab? Suggest correction