Oops, an error
Loading. Please wait.

Meet Me In The City tab

version 3
version 3

Whole song

  • This the version featured on the 'Chulahoma: The S... Show more
412 views 21 this week
no commentswrite comment
1 2 3 4 5
x 3
add to favorites
×
Save as Personal and add changes to this tab that will be seen only by you. Learn more ›
×
You can save this tab as Personal to edit and correct it or add notes. All changes will be seen only by you. Learn more »
launch autoscroll
font size
0
reset
how to read this tab
guitar tuner
edit
Autoscroll
slow
fast
+/-
esc
set tempo
stop
Author
Difficulty
About this tab version
This the version featured on the 'Chulahoma: The Songs Of Junior' album. The effect used to have this sound is called Tremolo. The scale used is the B minor pentatonic scale almost entirely throughout the song. Was this info helpful? Yes No
[Intro]

e|-x-|
B|-5-|
G|-6-|
D|-7-|
A|-7-|
E|-5-|

e|---------------------------------------|----------------------------------|
B|---------------------------------------|----------------------------------|
G|-11---9--------------------------------|----------------------------------|
D|----------11---9p7-------7---7h9-------|-------------7---9/11-----------7-|
A|---------------------9---------------9-|-7---7---9--------------7---9-----|
E|---------------------------------------|----------------------------------|

e|---------------------------------------|-------------------------------------------|
B|---------------------------------------|-------------------------------------------|
G|-11---9--------------------------------|-------------------------------------------|
D|----------11---9p7-------7---7h9-------|---------7---9/11----9\7-------7---7h9-----|
A|---------------------9---------------9-|-7---9---------------------9-------------9-|
E|---------------------------------------|-------------------------------------------|

e|------------------x--|--------------------------------------|-------------------------|
B|------------------5--|--------------------------------------|-------------------------|
G|------------------6--|-----------------------------------6--|-----------------------6-|
D|-------7----------7--|------7---9h11---7-------7---7h9---7--|-----7---9h11---7------7-|
A|-7h9------9---7---7--|--9--------------9---9----------------|-9--------------9--9-----|
E|------------------5--|--------------------------------------|-------------------------|


[Verse]

e|-------------------------------|------------------------------------|
B|-5/7--5------------------------|------------------------------------|
G|---------4/6---4--------6~~----|------------------------------------|
D|---------------7~~\0-----------|-------7------7---9h11---7--------7-|
A|-------------------------------|-7h9------9--------------9---9------|
E|-------------------------------|------------------------------------|
  Meet me, oh momma, in the city

e|-----------------------------------|-------------------------------------|
B|-5/7---5---------------------------|-------------------------------------|
G|-----------4/6---4-----------------|-------------------------------------|
D|---------------------7---7/9-------|--------7-------7---9/11---7-------7-|
A|-------------------------------9\7-|--7h9---9---9--------------9---9-----|
E|-----------------------------------|-------------------------------------|
   And see everything's is so fine

e|--------------------------------|-------------------x--|-------------------------|
B|-5/7---5------------------------|-------------------5--|-------------------------|
G|-----------4/6---4---2/4--------|-------------------6--|-------------------------|
D|---------------------------4----|-------9-----------7--|-----7---9h11--7-------7-|
A|--------------------------------|-7h9-------9---7---7--|-9-------------9---9-----|
E|--------------------------------|-------------------5--|-------------------------|
   We'll get together now, darlin'

e|--------------------------------------|------------------------------------|
B|--------------------------------------|------------------------------------|
G|-2h4-----2h4p2------------------------|------------------------------------|
D|--------------------7-------7-------7-|-9h11---7------7----7h9---7-------7-|
A|-----------------9-------9-------9----|------------9-----------------9-----|
E|--------------------------------------|------------------------------------|
  Oh yes we will

e|------------------------------------------------|---------------------|
B|-5/7---5----------------------------------------|---------------------|
G|-----------4/6---4---2/4---4--------------2/6~~-|-6\4---4---2/4-------|
D|--------------------------------4---------------|-----------------4~~-|
A|------------------------------------------------|---------------------|
E|------------------------------------------------|---------------------|
   We'll make everything alright, Now honey don't,  Oh    honey    don't

e|-----------------------------------------------------------------------------------|
B|-----------------------------------------------------------------------------------|
G|-----------------------------------------------------------------------------------|
D|-------7-------------------7---9h11---7-------7---7h9---7-------7---9h11---7-----7-|
A|-7h9-------9---7-------9--------------7---9-----------------9------------------9---|
E|-------------------5---------------------------------------------------------------|


e|-----------------|--------------------------------------------------------------|-----------------|
B|-7-------5---5/7-|-5/7---5------------------------------------------------------|-----------------|
G|-----6-----------|-------------4/6---4---2/4---4----2--------2/6--------4/6---4-|-4---4p2---------|
D|-----------------|------------------------------------4-------------------------|-----------4---4-|
A|-----------------|--------------------------------------------------------------|-----------------|
E|-----------------|--------------------------------------------------------------|-----------------|
    Please,         please don't leave me right now, baby,    Right now, right now, Oh   no   no  no

e|------------------|
B|------------------|
G|------------------|
D|-----7------------|
A|-7h9----9---7-----|
E|----------------5-|

[Solo 1]
**************************************************************************************************************
e|-------|----------------|--------------------------------------------------|------------------------------|
B|-------|-7--10----------|-12/14---12---------------------------------------|----------------------------7-|
G|-4/6~~-|---------11\9---|--------------14---11-----------------------------|-4/6\4--2h4---4/6--2h4p2------|
D|-------|----------------|------------------------14---9/11---7---9---4---2-|------------------------------|
A|-------|----------------|--------------------------------------------------|------------------------------|
E|-------|----------------|--------------------------------------------------|------------------------------|
                                                                                              You got me, baby
**************************************************************************************************************

You got me, baby
You got me, darlin'
You got me where you want me, baby
Girl, I know you are satisfied
Still begging you, baby
Don't leave me here

Please, please don't leave me
Right now baby, right now, right now
Oh no no no

e|----------------------------------|      |-----------------------|----------------------------------|
B|----------------------------------|      |-----------------------|----------------------------------|
G|----------------------------------|      |-----------------------|----------------------------------|
D|-9h11p7-------7---7h9---7-------7-|  x2  |-----7-------7-------7-|-9h11p7-------7---7h9---7-------7-|
A|----------9-----------------9-----|      |-9-------9-------9-----|----------9-----------------9-----|
E|----------------------------------|      |-----------------------|----------------------------------|
   You got me, darlin' ,  You got me where you want me, baby,         Girl, I know you are 

e|------------------------------------|--------------------------------------------------|
B|------------------------------------|--------------------------------------------------|
G|-7h9---7h9--------------------------|-4h6----------------------------------------------|
D|-7h9---7h9p7------7-------7-------7-|-------7-------7---9---7-------7---7h9---7------7-|
A|--------------9-------9-------9-----|-----------9---------------9-----------------9----|
E|------------------------------------|--------------------------------------------------|
   satisfied                            Still begging you, baby

e|-----------------------------|------------------------------------|
B|-----------------------------|------------------------------------|
G|-7h9---7h9-------------------|------------------------------------|
D|-7h9---7h9p7-------7-------7-|--9h11---7-------7---7h9---7------7-|   (repeat the last measure)
A|---------------9------9------|-------------9-----------------9----|
E|-----------------------------|------------------------------------|
   Don't leave me here

e|-----------------|---------------------------------------------------------|-----------------|
B|-7-------5---5/7-|-5/7----5------------------------------------------------|-----------------|
G|-----6-----------|--------------4/6--4---2/4---4----2-------2/6---6-----4--|-4---4p2---------|
D|-----------------|------------------------------------4--------------------|-----------4---4-|
A|-----------------|---------------------------------------------------------|-----------------|
E|-----------------|---------------------------------------------------------|-----------------|
  Please,           please don't leave me Right now baby, right now,right now, Oh   no   no  no

e|----------------x--|
B|----------------5--|
G|----------------6--|
D|-----7----------7--|
A|-7h9----9---7---7--|
E|----------------5--|

[Solo 2]
**************************************************************************************************************
e|-------|---------------------|------------------|------------9------------|-------------9-------------|
B|-------|-5/7-------5---------|-------5/7---10~~-|-7h10---7------10--------|---------10------10--------|
G|-4/6~~-|-------6-------6\4~~-|-4/6--------------|--------------------11\9-|-9---11---------------11\9-|
D|-------|---------------------|------------------|-------------------------|---------------------------|
A|-------|---------------------|------------------|-------------------------|---------------------------|
E|-------|---------------------|------------------|-------------------------|---------------------------|

e|---------|-14--------12--------------------------|---------------------------------------------|
B|-12/14~~-|------14--------14\12------------------|---------------------------------------------|
G|---------|------------------------14/16\14-------|--------14\11----------------14\11-----------|
D|---------|------------------------------------14-|-14/16----------14---14/16-----------14---16-|
A|---------|---------------------------------------|---------------------------------------------|
E|---------|---------------------------------------|---------------------------------------------|

e|---------------------|-------------------|
B|---------------------|-------------------|
G|-------------6-------|--------------6----|
D|-7---9---7-------7\2-|-----7h9p7-------9-|
A|---------------------|-9-----------------|
E|---------------------|-------------------|

e|-----------------------------|-----------------------------------------------------------|
B|-----------------------------|-----------------------------------------------------------|
G|-11p9---7/9---11---14---11~~-|-11---14---11---14---11---14---11---14---11---14---11---14-|
D|-----------------------------|-----------------------------------------------------------|
A|-----------------------------|-----------------------------------------------------------|
E|-----------------------------|-----------------------------------------------------------|

e|-----------------------------|------------------------|-2-----------------------------|
B|-----------12/14---12--------|-------------2----------|-----5-------------------------|
G|-11---14----------------11\9-|-4---2---4------4-------|---------4---2---4p2-----------|
D|-----------------------------|--------------------4\2-|-----------------------2---4~~-|
A|-----------------------------|------------------------|-------------------------------|
E|-----------------------------|------------------------|-------------------------------|
************************************

| x   Dead note
| h   Hammer-on
| p   Pull-off
| /   Slide up
| \   Slide down
| ~   Vibrato
| s   Slap

************************************

Effecs used in the song: Tremolo

************************************

            
            
Suggest correction
Creating personal tab
Creating personal tab
You can edit any tab online and save it as your Personal.

You can edit, replace or remove any tab part or add personal notes – all changes will be seen only by you.

Personal tabs can be accessed anytime from any device, even offline.
Learn more »
Give kudos to tab author, rate the tab!
1 2 3 4 5
comments
print report bad tab
guest
You may want to rate the tab now too:
select rating
Wanna post a correction for this tab? Suggest correction