Oops, an error
Loading. Please wait.

Modern Times tab

43,182 views 36 this week
7 commentsread comments
1 2 3 4 5
x 24
add to favorites
×
Save as Personal and add changes to this tab that will be seen only by you. Learn more ›
×
You can save this tab as Personal to edit and correct it or add notes. All changes will be seen only by you. Learn more »
launch autoscroll
font size
0
reset
how to read this tab
guitar tuner
edit
Autoscroll
slow
fast
+/-
esc
set tempo
stop
Author
[Riff A]
e|--------------------------------------------------------------|
B|--------------------------------------------------------------|
G|--------------------------------------------------------------|
D|-----5--7--7--7--5--------------------------------------------|
A|-----5--7-------------5-6-7\5p3----5p3p0----------------------|
E|-----3--5-----------------------------------------------------|

e|--------------------------------------------------------------|
B|--------------------------------------------------------------|
G|--------------------------------------------------------------|
D|-----5--7--7--7--5--------------------------------------------|
A|-----5--7-------------/5------\3------------------------------|
E|-----3--5-----------------------------------------------------|
(x2)

[Riff B]
e|--------------------------------------------------------------|
B|--------------------------------------------------------------|
G|--------------------------------------------------------------|
D|-----5----7-----------------------7---------------------------|
A|-----5----7-----------------------7---------------------------|
E|-----3----5-----------------------5---------------------------|
(x4)

[Riff A]
e|--------------------------------------------------------------|
B|--------------------------------------------------------------|
G|--------------------------------------------------------------|
D|-----5--7--7--7--5--------------------------------------------|
A|-----5--7-------------5-6-7\5p3----5p3p0----------------------|
E|-----3--5-----------------------------------------------------|

e|--------------------------------------------------------------|
B|--------------------------------------------------------------|
G|--------------------------------------------------------------|
D|-----5--7--7--7--5--------------------------------------------|
A|-----5--7-------------/5------\3------------------------------|
E|-----3--5-----------------------------------------------------|
(x2)

[Riff B]
e|--------------------------------------------------------------|
B|--------------------------------------------------------------|
G|--------------------------------------------------------------|
D|-----5----7-----------------------7---------------------------|
A|-----5----7-----------------------7---------------------------|
E|-----3----5-----------------------5---------------------------|
(x4)

[Riff A]
e|--------------------------------------------------------------|
B|--------------------------------------------------------------|
G|--------------------------------------------------------------|
D|-----5--7--7--7--5--------------------------------------------|
A|-----5--7-------------5-6-7\5p3----5p3p0----------------------|
E|-----3--5-----------------------------------------------------|

e|--------------------------------------------------------------|
B|--------------------------------------------------------------|
G|--------------------------------------------------------------|
D|-----5--7--7--7--5--------------------------------------------|
A|-----5--7-------------/5------\3------------------------------|
E|-----3--5-----------------------------------------------------|
(x2)

[Riff C]
e|-------------------------------------------------------------|
B|-------------------------------------------------------------|
G|-------------------------------------------------------------|
D|-------------------------------------------------------------|
A|------------3h5---3---------------3---3----------------------|
E|---5-5-3-5------5---5-5-3-5---------5------------------------|
(x4)

[Riff D]
e|-------------------------------------------------------------|
B|-------------------------------------------------------------|
G|-------------------------------------------------------------|
D|-------------------------------------------------------------|
A|------3---5/7---5---3----2------0----------------------------|
E|----5--------------------------------------------------------|

[Riff E]
e|-------------------------------------------------------------|
B|-------------------------------------------------------------|
G|-------------------------------------------------------------|
D|-------------------------------------------------------------|
A|---5-5---3p2----0--------------------------------------------|
E|-------------------------------------------------------------|
(x4)

[Riff A]
e|--------------------------------------------------------------|
B|--------------------------------------------------------------|
G|--------------------------------------------------------------|
D|-----5--7--7--7--5--------------------------------------------|
A|-----5--7-------------5-6-7\5p3----5p3p0----------------------|
E|-----3--5-----------------------------------------------------|

e|--------------------------------------------------------------|
B|--------------------------------------------------------------|
G|--------------------------------------------------------------|
D|-----5--7--7--7--5--------------------------------------------|
A|-----5--7-------------/5------\3------------------------------|
E|-----3--5-----------------------------------------------------|
(x2)

[Riff B]
e|--------------------------------------------------------------|
B|--------------------------------------------------------------|
G|--------------------------------------------------------------|
D|-----5----7-----------------------7---------------------------|
A|-----5----7-----------------------7---------------------------|
E|-----3----5-----------------------5---------------------------|
(x4)

[Riff C]
e|-------------------------------------------------------------|
B|-------------------------------------------------------------|
G|-------------------------------------------------------------|
D|-------------------------------------------------------------|
A|------------3h5---3---------------3---3----------------------|
E|---5-5-3-5------5---5-5-3-5---------5------------------------|


************************************

| p  Pull-off
| \  Slide down
| /  Slide up
| h  Hammer-on

************************************

            
            
Suggest correction
Creating personal tab
Creating personal tab
You can edit any tab online and save it as your Personal.

You can edit, replace or remove any tab part or add personal notes – all changes will be seen only by you.

Personal tabs can be accessed anytime from any device, even offline.
Learn more »
comments
print report bad tab
7 comments total. Showing first comments.
0 reply
mike_anderson25 10 Feb 04, 2007 07:49 PM

Wicked tab m8 cheers

0 reply
Hugsnotdrugs 10 Jun 05, 2011 03:02 PM

good tab but i think Riff C might be more like:
D---------------------------------------------------
A-------4b-----------4-5b-4----------------------------
E-3-5-3---5-3-5--3-5--------5-3---------------------------

+1 reply
Lugas 40 Nov 25, 2011 01:32 PM

I´m more into this version of Riff C:

A ---------5-3------------3---3--
E -3-3-3-5-----5--3-3-3-5---5----

Atleast that´s the way I´m playing it.

guest
You may want to rate the tab now too:
select rating
Wanna post a correction for this tab? Suggest correction