Oops, an error
Loading. Please wait.

Never Gonna Give You Up bass

3,077 views 21 this week
no commentswrite comment
1 2 3 4 5
1 last vote to show rating
add to favorites
×
Save as Personal and add changes to this tab that will be seen only by you. Learn more ›
×
You can save this tab as Personal to edit and correct it or add notes. All changes will be seen only by you. Learn more »
launch autoscroll
font size
0
reset
guitar tuner
edit
Autoscroll
slow
fast
+/-
esc
set tempo
stop
Author
Difficulty
-----------------------------------------------------------------------------
                             Never Gonna Give You Up - Black Keys
-----------------------------------------------------------------------------
Tabbed by: David Hill
E-mail: employdave@yahoo.co.uk

Tuning: Standard


Intro:

G|-----------------------------------------|
D|-----------------------------------------|
A|-------5------------5-----7--------------|   x2
E|-----------------------------------5-----|

Chorus:

G|---------------9---9/11-----------9---9/11---9--7--9---|
D|------------9------------------9-----------------------|
A|-------7------------------7----------------------------|   x2
E|-------------------------------------------------------|

Verse:

G|-------------------------------------------------------------------|
D|-------------------------------------------------------------------|
A|----7----0--7--7---0--7------------------9--0--9--9--0--9---2-4-5-6|  x2
E|------------------------5--0--5--5--0--5---------------------------|

Chorus the same as before but just add C then A when he sings "Baby don't you 
understand, what you're doing to the man"

G|---------------9---9/11-----------9---9/11---9--7--9--    |-------------|
D|------------9------------------9----------------------    |-------------|
A|-------7------------------7--------------------------- x2 |3----3-------|  
E|------------------------------------------------------    |---------5---|
 
Verse  
Chorus 
Intro  
Verse  
Chorus x2
Intro

| /  slide up
| \  slide down
| h  hammer-on
| p  pull-off
| ~  vibrato
| +  harmonic
| x  Mute note
=============================================================================

            
            
Suggest correction
Creating personal tab
Creating personal tab
You can edit any tab online and save it as your Personal.

You can edit, replace or remove any tab part or add personal notes – all changes will be seen only by you.

Personal tabs can be accessed anytime from any device, even offline.
Learn more »
Give kudos to tab author, rate the tab!
1 2 3 4 5
comments
print report bad tab
guest
You may want to rate the tab now too:
select rating
Wanna post a correction for this tab? Suggest correction