Oops, an error
Loading. Please wait.

Next Girl Tab

version 3
version 3

Whole song

Interactive

2,516 views 9 this week
2 commentsread comments
1 2 3 4 5
accurate
x 4
add to favorites
launch autoscroll
font size
0
reset
how to read this tab
guitar tuner
Tab Pro tools
  • play this tab
  • loop segment
  • change instrument
  • show fretboard
  • metronome
×
Best way to learn
"Next Girl"
Autoscroll
slow
fast
+/-
esc
set tempo
stop
Contributor
Difficulty
novice
This is a VERY easy song. This is my very first tab, but I am 100% sure it is right.
Timing and spacing may be a little off(once again first tab please leave comments. I know
there are probably easier ways to play this song, but I think it is easy enough already. 
It's not the cleanest looking
tab out there but it is correct.

e-------------------------------------------------------|
B-------------------------------------------------------|
G-------------------------------------------------------|
D---2-------------------2--4--6-6-6-6-6-6-6-6-4-4-4-4-2-|
A--------------------4----------------------------------|
E-------------------------------------------------------|

e--------------------|
B--------------------|
G--------------------|  X8
D--------------------|
A--2-4-2h4--2--------|
E--------------0-0---|

e----------------------------------------|
B----------------------------------------|
G----------------------------------------| X2
D-----2---------2--------2h4-2------2----|
A-2-4---4---2-4---4--2-4-------2-4---4---|
E----------------------------------------|

e--------------------|
B--------------------|
G--------------------|  X6
D--------------------|
A--2-4-2h4--2--------|
E--------------0-0---|

e------------------------------------------------------------|
B------------------------------------------------------------|
G------------------------------------------------------------|
D-----2---------2--------2h4-2------2---------2h4-2------2---|
A-2-4---4---2-4---4--2-4--------2-4---4---2-4--------2-4---4-|
E------------------------------------------------------------|

e--------------------------------------------------------|
B--------------------------------------------------------|
G--------------------------------------------------------|
D---2-4-6-6-6-6-6-6-6-6-4-4-4-4-2-2-2------2---------2---|
A-4------------------------------------2-4---4---2-4---4-|
E--------------------------------------------------------|

e---------------------------------|
B---------------------------------|
G---------------------------------|
D---2-4-6-6-6-6-6-6-6-6-4-4-4-4-2-|
A-4-------------------------------|
E---------------------------------|

e---------|       e-------|
B---------|       B-------|
G---------| X6    G-------|
D---------|       D-------|
A--2-4-2h4|       A--2-44-|
E---------|       E-------|
comments
print report bad tab
2 comments total.
0 reply
kristoefoe wrote on July 30 2012, 11:32 am

the only mistakes I made are on the 3rd and 5th parts, they should go

D-----2h4 D-2h4
A-2-4---- not just A----
E-------- E----

0 reply
kristoefoe wrote on July 30 2012, 11:33 am

shouldn't be
D-2h4-
A-----
E-----

I want to post or [tab]
guest
You may want to rate the tab now too:
select rating
Please do not post tabs as comments. Select "correction" instead!