Oops, an error
Loading. Please wait.

No Trust tab

version 2
version 2

Whole song

2,080 views 12 this week
no commentswrite comment
1 2 3 4 5
1 last vote to show rating
add to favorites
×
Save as Personal and add changes to this tab that will be seen only by you. Learn more ›
×
You can save this tab as Personal to edit and correct it or add notes. All changes will be seen only by you. Learn more »
launch autoscroll
font size
0
reset
how to read this tab
guitar tuner
edit
Autoscroll
slow
fast
+/-
esc
set tempo
stop
Author
Difficulty
                                  ~~~~~~~~~~~~~~~~~~~~~~~~~~~~~~~~~~~~~~~~
                                                  No Trust
                                               The Black Keys
                                               Thickfreakness
                                  ~~~~~~~~~~~~~~~~~~~~~~~~~~~~~~~~~~~~~~~~


Tabbed by: Connor O.
Tuning: Standard


The intro isn't with the exact timing as the rest of the song. If you play at 
the pace of later parts of the song, like 0:13, then try and go back to the intro
you'll hear that's it's off kilter.

The verses are identical except for the lyrics, so I only tabbed the first verse."
However, I did write out all the lyrics.

Comment or message any ideas or corrections. Please rate my tab. If you've got
problems with the tab, I'd encourage you to contact me with those problems so I
can fix the tab or provide advice for playing. Don't just give me a poor rating
and not give me any feedback. The idea is for us all to work together to create
a perfect finished product. This tab just represents the best I can do. It's 
definitely up for peer review.



Key:
where # represents a fret number

#h# - hammer
#p# - pull
/ \ - slides, up and down respectively.
#b# - bend from normal note up to achieve bended note.
#r# - release bend from bended note to normal note.
 x  - mute
 *  - time keeper. if you played a steady
      baseline (~230 bpm for this song), you'd see 
      the notes are displayed in the tab in the correct 
      chronological order. 



Intro:


  0:00

e|-----------------------------------------------------------------|
B|-----------------------------------------------------------------|
G|-----------------------------------------------------------------|
D|-----------------------------------------------------------------|
A|---------------------------------5-------------------------------|
E|-3---------------------------------------------------------------|
   *   *   *   *   *   *   *   *   *   *   *   *   *   *   *   *

  0:06

e|-----------------------------------------------------------------|
B|-----------------------------------------------------------------|
G|-----------------------------------------------------------------|
D|-3-------------------------------3h5-----------------------------|
A|-----------------------------------------------------------------|
E|-----------------------------------------------------------------|
   *   *   *   *   *   *   *   *   *   *   *   *   *   *   *   *


Bridge:


  0:13

e|-----------------------------------------------------------------|
B|-----------------------------------------------------------------|
G|-----------------------------------------------------------------|
D|-----------------3-------5-----------------------3---3---5---5---|
A|---------5-------------------------------5---5-------------------|
E|-3-------------------------------3---3---------------------------|
   *   *   *   *   *   *   *   *   *   *   *   *   *   *   *   *

  0:17
  
e|-----------------------------------------------------------------|
B|-3---3---5---5---3---3-------------------------------------------|
G|-3---3---5---5---3---3---------------------------------------3---|
D|-3---3---5---5---3---3---------------------------3---3---5-------|
A|-----------------------------------------5---5-------------------|
E|-------------------------1---1---3---3---------------------------|
   *   *   *   *   *   *   *   *   *   *   *   *   *   *   *   *

  0:22

e|-----3-----------3-----------------------------------------------|
B|-----3-----------3-----------------------------------------------|
G|-5b7-----3---5b7-----3---5b7r5-----------------------------------|
D|-------------------------------------------------3---3---5---5---|
A|-----------------------------------------5---5-------------------|
E|---------------------------------3---3---------------------------|
   *   *   *   *   *   *   *   *   *   *   *   *   *   *   *   *

  0:26

e|-----------------------------------------------------------------|
B|-3---5---3---5---6---5---3---0-----------------------------------|
G|-3---5---3---5---6---5---3---0-----------------------------------|
D|-3---5---3---5---6---5---3---0-------------------3---3---5---5---|
A|-----------------------------------------5---5-------------------|
E|---------------------------------3---3---------------------------|
   *   *   *   *   *   *   *   *   *   *   *   *   *   *   *   *


Verse 1:


  0:30
                       she wan-na get out of the car
                       yeah in the middle of the road
                       and her screaming and hollerin
                       it's gettin mighty old
e|-----------------------------------------------------------------|
B|-3---3---5---5---3---3-------------------------------------------| 
G|-3---3---5---5---3---3-------------------------------------------| X4
D|-3---3---5---5---3---3---------------------------3---3---5---5---|
A|-----------------------------------------5---5-------------------|
E|-------------------------1---1---3---3---------------------------|
   *   *   *   *   *   *   *   *   *   *   *   *   *   *   *   *

  0:46
                           Well she check  every   paper        
e|---------------------------------3-------3-------3-------3---2---|
B|-3---3---5---5---3---3-----------5-------5-------5-------5---4---|
G|-3---3---5---5---3---3-----------3-------3-------3-------3---2---|
D|-3---3---5---5---3---3-----------5-------5-------5-------5---4---|
A|---------------------------------3-------3-------3-------3---2---|
E|---------------------------------3-------3-------3-------3---2---|
   *   *   *   *   *   *   *   *   *   *   *   *   *   *   *   *

  0:50
           When you step out the room
e|-3-------3---2---3---3-------------------------------------------|
B|-5-------5---4---5---5-------------------------------------------|
G|-3-------3---2---3---3-------------------------------------------|
D|-5-------5---4---5---5---------------------------3---3---5---5---|
A|-3-------3---2---3---3-------------------5---5-------------------|
E|-3-------3---2---3---3-----------3---3---------------------------|
   *   *   *   *   *   *   *   *   *   *   *   *   *   *   *   *

  0:55
 
e|-----------------------------------------------------------------|
B|-3---3---5---5---3---3-------------------------------------------|
G|-3---3---5---5---3---3---------------------------------------3---|
D|-3---3---5---5---3---3---------------------------3---3---5-------|
A|-----------------------------------------5---5-------------------|
E|-------------------------1---1---3---3---------------------------|
   *   *   *   *   *   *   *   *   *   *   *   *   *   *   *   *

  0:59
                       Ain't got no trust  in  your mama
e|-----------------------------------------------------------------|
B|-3---3---5---5---3-----------------------------------------------|
G|-3---3---5---5---3---5b7r5---3---5-------3-----------------------|
D|-3---3---5---5---3---------------------------5---5-------3---5---|
A|-------------------------------------------------------------3---|
E|-------------------------------------------------------------3---|
   *   *   *   *   *   *   *   *   *   *   *   *   *   *   *   *

  1:03
                       Ain't got no trust  in your daddy
e|-----------------------------------------------------------------|
B|-----------------------------------------------------------------|
G|---------------------5b7r5---3---5-------3-------3---3-----------|
D|-5-------3---5-------------------------------5---------------5---|
A|-5-------3---5-----------------------------------------------5---|
E|-3-------1---3-----------------------------------------------3---|
   *   *   *   *   *   *   *   *   *   *   *   *   *   *   *   *

  1:07
                       Ain't got not trust in your sister
e|-----------------------------------------------------------------|
B|-----------------------------------------------------------------|
G|---------------------5b7r5---3---5-------3-----------------------|
D|-5-------3---5-------------------------------5---5-------3---5---|
A|-5-------3---5-----------------------------------------------5---|
E|-3-------1---3-----------------------------------------------3---|
   *   *   *   *   *   *   *   *   *   *   *   *   *   *   *   *

  1:11
                       And she ain't got trust in you
e|-----------------------------------------------------------------|
B|-----------------------------------------------------------------|
G|---------------------5b7r5---3---5-------3--------------3--------|
D|-5-------3---5-----------------------------------5---------------|
A|-5-------3---5---------------------------------------------------|
E|-3-------1---3---------------------------------------------------|
   *   *   *   *   *   *   *   *   *   *   *   *   *   *   *   *


Brigde:


  1:15

e|-----------------------------------------------------------------|
B|-----------------------------------------------------------------|
G|-5---------------------------------------------------------------|
D|------------------------------------------------3---3---5---5----|
A|-----------------------------------------5---5-------------------|
E|---------------------------------3---3---------------------------|
   *   *   *   *   *   *   *   *   *   *   *   *   *   *   *   *

  1:19

e|-----------------------------------------------------------------|
B|-3---3---5---5---3---3-------------------------------------------| 
G|-3---3---5---5---3---3---------------------------------------3---| 
D|-3---3---5---5---3---3---------------------------3---3---5-------|
A|-----------------------------------------5---5-------------------|
E|-------------------------1---1---3---3---------------------------|
   *   *   *   *   *   *   *   *   *   *   *   *   *   *   *   *

  1:23

e|-----3----------------------3------------------------------------|
B|-----3----------------------3------------------------------------|
G|-5b7-----3---5b7-5---5b7r5---------------------------------------|
D|-------------------------------------------------3---3---5---5---|
A|-----------------------------------------5---5-------------------|
E|---------------------------------3---3---------------------------|
   *   *   *   *   *   *   *   *   *   *   *   *   *   *   *   *

  1:27

e|-----------------------------------------------------------------|
B|-3---5---6---5---3---5---3---0-----------------------------------|
G|-3---5---6---5---3---5---3---0-----------------------------------|
D|-3---5---6---5---3---5---3---0-------------------3---3---5---5---|
A|-----------------------------------------5---5-------------------|
E|---------------------------------3---3---------------------------|
   *   *   *   *   *   *   *   *   *   *   *   *   *   *   *   *


Verse 2:


1:33

She want a simple life
She needs a simple man
That don't drink or smoke darlin'
Play in a rock-n-roll band

1:49
ah but she want you to hold her at night when she's lonely and blue

2:02
ain't got no trust in her mama

2:06
ain't got no trust in her daddy

2:10
ain't got no trust in her sister

2:14 
and she ain't got trust in you



Bridge/Solo:


  2:17

e|-----------------------------------------------------------------|
B|-----------------------------------------------------------------|
G|-----------------------------------------------------------------|
D|-5-----------------------5\0--------------------3---3---5---5----|
A|-----------------------------------------5---5-------------------|
E|---------------------------------3---3---------------------------|
   *   *   *   *   *   *   *   *   *   *   *   *   *   *   *   *

  2:21

e|-----------------------------------------------------------------|
B|-3---3---5---5---3---3-------------------------------------------| 
G|-3---3---5---5---3---3-------------------------------------------| 
D|-3---3---5---5---3---3---------------------------3---3---5---5---|
A|-----------------------------------------5---5-------------------|
E|-------------------------1---1---3---3---------------------------|
   *   *   *   *   *   *   *   *   *   *   *   *   *   *   *   *

  2:24

e|-----------------------------3-----------------------------------|
B|-----------------4---5-------3-----------------------------------| 
G|---------3-h-4-----------5b7---------------------------------3---| 
D|-2-h-3-------------------------------------------3---3---5-------|
A|-----------------------------------------5---5-------------------|
E|---------------------------------3---3---------------------------|
   *   *   *   *   *   *   *   *   *   *   *   *   *   *   *   *

  2:28

e|-----3-----------3-----------------------------------------------|
B|-----3-----------3-----------------------------------------------|
G|-5b7-----3---5b7-----3---5b7r5-----------------------------------|
D|-------------------------------------------------3---3---5---5---|
A|-----------------------------------------5---5-------------------|
E|---------------------------------3---3---------------------------|
   *   *   *   *   *   *   *   *   *   *   *   *   *   *   *   *

  2:32

e|-6b7---6b7---6b7-6b7---------3-----------------------------------|
B|-6b7---6b7---6b7-6b7-3---5---------------------------------------| 
G|-----------------------------------------------------------------| 
D|-------------------------------------------------3---3---5---5---|
A|-----------------------------------------5---5-------------------|
E|---------------------------------3---3---------------------------|
   *   *   *   *   *   *   *   *   *   *   *   *   *   *   *   *

  2:37

e|-----------------------------------------------------------------|
B|-6-/-8-------8-\-6---6-/-8---8-----------------------------------| 
G|-5-/-7-------7-\-5---5-/-7---7-------------------------------3---| 
D|-------------------------------------------------3---3---5-------|
A|-----------------------------------------5---5-------------------|
E|---------------------------------3---3---------------------------|
   *   *   *   *   *   *   *   *   *   *   *   *   *   *   *   *

  2:41

e|-8b9---8b9---8b9-8b9-------3-------------------------------------|
B|-8b9---8b9---8b9-8b9-3h5-----------------------------------------| 
G|-----------------------------------------------------------------| 
D|-------------------------------------------------3---3---5---5---|
A|-----------------------------------------5---5-------------------|
E|---------------------------------3---3---------------------------|
   *   *   *   *   *   *   *   *   *   *   *   *   *   *   *   *

  2:44

e|-----------------------------3-----------------------------------|
B|-----------------4---5-------3-----------------------------------| 
G|---------3-h-4-----------5b7---------------------------------3---| 
D|-2-h-3-------------------------------------------3---3---5-------|
A|-----------------------------------------5---5-------------------|
E|---------------------------------3---3---------------------------|
   *   *   *   *   *   *   *   *   *   *   *   *   *   *   *   *

  2:49

e|-3---------------------------------------------------------------|
B|-3---------------------------------------------------------------| 
G|-5b7---------------------------------------------------------3---| 
D|-------------------------------------------------3---3---5-------|
A|-----------------------------------------5---5-------------------|
E|---------------------------------3---3---------------------------|
   *   *   *   *   *   *   *   *   *   *   *   *   *   *   *   *


Verse 3:


2:50

Yeah she's a beautiful gal
When she wanna be
But if you told her so darlin'
She'd just disagree

3:06
Oh she hates your job, and what you want him to do?

3:18
ain't got no trust in her mama

3:22
ain't got no trust in her daddy

3:26
ain't got no trust in her sister

  3:30
                       and she ain't got trust in you
e|-----------------------------------------------------------------|
B|-----------------------------------------------------------------|
G|---------------------5b7r5---3---5-------3--------------3--------|
D|-5-------3---5-----------------------------------5-----------5---|
A|-5-------3---5-----------------------------------------------5---|
E|-3-------1---3-----------------------------------------------3---|
   *   *   *   *   *   *   *   *   *   *   *   *   *   *   *   *

  3:33

e|-----------------------------------------------------------------|
B|-----------------------------------------------------------------|
G|-----------------------------------------------------------------|
D|-5-------3---5---------------------------------------------------|
A|-5-------3---5---------------------------------------------------|
E|-3-------1---3---------------------------------------------------|
   *   *   *   *   *   *   *   *   *   *   *   *   *   *   *   *
Suggest correction
Creating personal tab
Creating personal tab
You can edit any tab online and save it as your Personal.

You can edit, replace or remove any tab part or add personal notes – all changes will be seen only by you.

Personal tabs can be accessed anytime from any device, even offline.
Learn more »
Give kudos to tab author, rate the tab!
1 2 3 4 5
comments
print report bad tab
guest
You may want to rate the tab now too:
select rating
Wanna post a correction for this tab? Suggest correction