Oops, an error
Loading. Please wait.

Nobody But You Tab

version 1
version 1

Whole song

13,070 views 30 this week
no commentswrite comment
1 2 3 4 5
excellent!
x 4
add to favorites
launch autoscroll
font size
0
reset
how to read this tab
guitar tuner
Tab Pro tools
  • play this tab
  • loop segment
  • change instrument
  • show fretboard
  • metronome
Autoscroll
slow
fast
+/-
esc
set tempo
stop
Contributor
Difficulty
intermediate
Song: Nobody But You
Artist: The Black Keys
Album: Chulahoma: The Songs of Junior Kimbrough
Tuning: standard
Tabbed by: mere - bastogne@wp.pl


Hey, that is my firs transcripton, so it might have mistakes, but for me it sounds accurate
(..mostly).
The song is played in A minor pentatonic in 1st position (the only piece of scale that I know
so far).
There are loads of improvisation, so I think there is no point in putting every single note
on a paper.
I love this song and I hope you will like it too. So sad that I couldn’t get the original
track by JK, but I think the Keys cover is awesome too.
Any corrections or comments are welcome, mail me: bastogne@wp.pl



Main riff: (lick I)    (lick II - sometimes he put some more semi-tone slides)
e---------------------------------------------------------------------------|
B----------------------7s8-5------------------------------------------------|
G-------5h7------------------5-6s7-5----------------------------------------|
D---5-7-----5-6s7--------------------6s5------------------------------------|
A-7-------------------------------------------------------------------------|
E---------------------------------------------------------------------------|

Intro: (lick I)x3 (lick II)

lick I var. 1: (0:16) lick II var. 1: (0:33) Nobody but you, darlin
e--------------------------------------------------------------------------------|
B--------------------------7s8-5-------------------------------------------------|
G-------5-7/half\-5--------------5-6s7-7p5---------------------------------------|
D---5-7------------------------------------7-------------------------------------|
A-7------------------------------------------------------------------------------|
E--------------------------------------------------------------------------------|

lick III Nobody but you, darlin (0:42)  lick IV: on my mind (0:47)
e--------------------------------------------------------------------------------|
B--------------------------------------------------------------------------------|
G-7/full-5---7/full\-5----------------------7-55---------------------------------|
D----------7-----------7-------------------------7-------------------------------|
A--------------------------------------------------------------------------------|
E--------------------------------------------------------------------------------|

lick I var. 2 (0:53)       baby.. (1:06)
e--------------------------------------------------------------------------------|
B--------------------------6s7-5-------------------------------------------------|
G-------7/full-5-7-6s5-------------(5)-------------------------------------------|
D---5-7--------------------------------------------------------------------------|
A-7------------------------------------------------------------------------------|
E--------------------------------------------------------------------------------|

solo I (1:34)
e---------------------------5----------------------------------------------------|
B------------------5-8/full---8-5s3---5-8-5-8/full-5-----------------------------|
G-------7/full-5--------------------7----------------7-5-----------5h7-----------|
D---5-7----------7---------------------------------------7s5---5-7-----5-6s7-----|
A-7----------------------------------------------------------7-------------------|
E--------------------------------------------------------------------------------|


e----------------------8-5---------5-8/full-5-------------------------------------------|
B-------------5-8/full-----8-5-5h8------------8-585-------------------7s8-5-------------|
G-------5---5---------------------------------------------5-5h7-------------5-6s7-5-----|
D-7-5h7---7-----------------------------------------5h7-7-------5-6s7---------------6s5-|
A---------------------------------------------------------------------------------------|
E---------------------------------------------------------------------------------------|

solo II (2:54)
e---------------------------5----------------------------------------------------|
B------------------5-8/full---8-5s3---5-8-5-8/full-8585-5858...58575857-5-8------|
G-----7/full-5---5------------------7--------------------------------------------|
D---5----------7-----------------------------------------------------------------|
A-7------------------------------------------------------------------------------|
E--------------------------------------------------------------------------------|

e-8-5-----5-5-5858-8/half-8-5-8/full-888-5-5-8^----------------------------------|
B-----8p5---------------------------------------8-5------------------------------|
G-----------------------------------------------------5-7/full-------------------|
D---------------------------------------------------7----------------------------|
A--------------------------------------------------------------------------------|
E--------------------------------------------------------------------------------|


(3:20)
e----------------------------------------------------------------------------------|
B------------------------------------------------------------8-5-------------------|
G--------5h7---7/full\-------5h7-------------5-7/half\-5---------7-5-7-5-----------|
D----5-7-----5-----------5-7-----5-7-----5-7---------------5-------------7p5-------|
A--7-------------------7---------------7-----------------7-------------------------|
E----------------------------------------------------------------------------------|


solo III (4:17)
e----------------------------5-----------------------------------------------------|
B-7s8-5---------5-8-5-8/full---8-5s3-----5-----------------------7s8---------------|
G-------5-6s7-7----------------------5-5---5---------6s7-5---5-7-----7-5-7---------|
D--------------------------------------------7-5---7-------7-----------------------|
A------------------------------------------------7---------------------------------|
E----------------------------------------------------------------------------------|


e----------------8---5-----5--8-5-------5----8-----5h8-5------5-5-8-5-8-5----------|
B-7s8--------------5---8-5--------5-8p5---5----5h8-------8--5-8--------------------|
G-----7-5---5-7--------------------------------------------------------------------|
D---------7------------------------------------------------------------------------|
A----------------------------------------------------------------------------------|
E----------------------------------------------------------------------------------|


e-8/full-8-5-8/half-8-5--8/full-8-5-8/half-8-5-------------------------------------|
B----------------------------------------------8-5---------------------------------|
G--------------------------------------------------7-5-7/half\-7/half\-------------|
D----------------------------------------------------------------------------------|
A----------------------------------------------------------------------------------|
E----------------------------------------------------------------------------------|

ending (5:13)
e-5--------------------------------------------------------------------------------|
B---8p5----------------------------------------------------------------------------|
G-------7p5------------------------------------------------------------------------|
D-----------7p5-7------------------------------------------------------------------|
A----------------------------------------------------------------------------------|
E----------------------------------------------------------------------------------|


s - slide
h - hammer on
p - pull off
^ - short bend at the end of the note
() - ghost note
/full - one tone bend
/half - semitone bend
/full\ - one tone bend and return
/half\ - semitone bend and return
comments
print report bad tab
I want to post or [tab]
guest
You may want to rate the tab now too:
select rating
Please do not post tabs as comments. Select "correction" instead!