Oops, an error
Loading. Please wait.
We have an official Nova Baby tab made by UG professional guitarists. Check out the tab »
×
22,327 views 12 this week
11 commentsread comments
1 2 3 4 5
x 14
add to favorites
×
Save as Personal and add changes to this tab that will be seen only by you. Learn more ›
×
You can save this tab as Personal to edit and correct it or add notes. All changes will be seen only by you. Learn more »
launch autoscroll
font size
0
reset
how to read this tab
guitar tuner
edit
Autoscroll
slow
fast
+/-
esc
set tempo
stop
Author
Difficulty
-------------------------------------------------------------------------------
                             Nova Baby - The Black Keys
-------------------------------------------------------------------------------
Tabbed by:lfgtimmer

Tuning:standard

Chords used:

   G    Em   Bm   B    C    A

e|-x----7----7----7----8----5----------------------------------------------------|
B|-12---8----7----7----8----5----------------------------------------------------|
G|-12---9----7----8----9----6----------------------------------------------------|
D|-12---9----9----9----10---7----------------------------------------------------|
A|-10---7----9----9-----10--7----------------------------------------------------|
E|-x----x----7----7----8----5----------------------------------------------------|

Listen to the song for the timing.

Intro:
G Em x3 B C x2
Em Bm x3 A A

Verse:
Em Bm x3 A A
Em Bm x3 A A

you walk around in other town
i've seen you out just hangin around
its what you choose and i suppose
you'll meet me one day
meet me one day
you throw away every other dream
taking over baby to the dollar machine
that party dress is such a mess
you'll need me one day
need me one day
soon....

Chorus:
G Em x3 B C
all your enemies
smile when you fall
take it coz you
dont know what you want
dont know what you want
oh... this love of mine
all my precious time
you've waste it coz you
dont know what you want

Verse:
Em Bm x3 A A
Em Bm x3 A A

there goes the kids that have a mask
elevator ladies in the parking lot
you saw it all and id recall
the dream you told me
dream you told me
this empty heart you left me with
that we belong, my parting gift
im falling hard for every odd
of the dream you sold me
dream you sold me

Chorus:
G Em x3 B C

all your enemies
smile when you fall
take it coz you
dont know what you want
dont know what you want
oh... this love of mine
all my precious time
you've waste it coz you
dont know what you want
dont know what you want

Solo:
e|--12--10--12/14--12--10--------------------10------------------------------|
B|------------------------12-12--12--10--12------12--10----------------------|
G|-------------------------------------------------------12------------------|
D|---------------------------------------------------------------------------|
A|---------------------------------------------------------------------------|
E|---------------------------------------------------------------------------|

e|--12--10--12/14--12--10--------------------10------------------------------|
B|------------------------12-12--12--10--12------12-12-12--------------------|
G|---------------------------------------------------------------------------|
D|---------------------------------------------------------------------------|
A|---------------------------------------------------------------------------|
E|---------------------------------------------------------------------------|

e|--12--10--12/14--12--10--------------------10--------------------------------|
B|------------------------12-12--12--10--12------12--10------------------------|
G|-------------------------------------------------------12--------------------|
D|-----------------------------------------------------------------------------|
A|-----------------------------------------------------------------------------|
E|-----------------------------------------------------------------------------|

e|--18b19p15-----------------------------------------------------------------|
B|------------17--15--17--15----------15~------------------------------------|
G|----------------------------16--14-----------------------------------------|
D|---------------------------------------------------------------------------|
A|---------------------------------------------------------------------------|
E|---------------------------------------------------------------------------|

e|--18b19p15-----------------------------------------------------------------|
B|------------17--15--17--15----------15~------------------------------------|
G|----------------------------16--14-----------------------------------------|
D|---------------------------------------------------------------------------|
A|---------------------------------------------------------------------------|
E|---------------------------------------------------------------------------|

Outro:
Play the chords of the chorus

            
            
Suggest correction
Creating personal tab
Creating personal tab
You can edit any tab online and save it as your Personal.

You can edit, replace or remove any tab part or add personal notes – all changes will be seen only by you.

Personal tabs can be accessed anytime from any device, even offline.
Learn more »
comments
print report bad tab
11 comments total. Showing first comments.
0 reply
lfgtimmer 256 Jan 18, 2012 01:00 PM

The second note, for the first three bars, in the solo part should be 10 on the high e string instead of 14. I tried to update it, but somehow it didn't work

+1 reply
heymcfly1234 118 Jan 26, 2012 07:14 AM

the G chord is actually this:

not:

also, you have a few too many repeated notes in the solo. overall a good tab. i still gave it 5 stars.

0 reply
heymcfly1234 118 Jan 26, 2012 12:13 PM

for some reason it didn't show all of my correction... i'll try again...

it should be

and not

x

guest
You may want to rate the tab now too:
select rating
Wanna post a correction for this tab? Suggest correction