Oops, an error
Loading. Please wait.

Oceans And Streams tab

version 1
version 1

Whole song

Interactive

21,357 views 6 this week
5 commentsread comments
1 2 3 4 5
x 4
add to favorites
×
Save as Personal and add changes to this tab that will be seen only by you. Learn more ›
×
You can save this tab as Personal to edit and correct it or add notes. All changes will be seen only by you. Learn more »
launch autoscroll
font size
0
reset
how to read this tab
guitar tuner
edit
Autoscroll
slow
fast
+/-
esc
set tempo
stop
Author
Difficulty
OCEANS AND STREAMS

The Black Keys

Transcribed by Danleary

Standard Tuning

Key

 ^ : Bend [1/4, 1/2, 1, etc.]
 v : Bring bend back down
 / : Slide into
 \ : Slide out of
 h : Hammer on
 p : Pull off
(-): Ghost note
 = : Vibrato
 x : Mute
_____________________________________________________________________________

Intro/Verse

0:00                                    0:05                          0:08
    E                   F#m                             Bm
e|---------------------------2----------2--------2--x---------2-2-----------|
B|---------------------------2----------2--------2--x---------3-3-----------|
G|--1---------------x-1------2----------2--------2--x-0---4---4-4--2--------|
D|--2---------------x-------------x-4-------------------4-------------------|
A|--2---0-----------x-------------x-----------------------------------------|
E|--0-------4---3-------2---------x---2---0-2-------------------------------|


0:08                                             0:13                    0:16
    F#m                             Bm         F#m
e|-------2----------2--------2--x-x-------2-2---------2----------2--------2-|
B|-------2----------2--------2--x-x-------3-3---------2----------2--------2-|
G|-------2----------2--------2--x-x---4---4-4---------2----------2--------2-|
D|------------x-4-------------------4----------------------x-4--------------|
A|------------x--------------------------------------------x----------------|
E|--2---------x---2---0-2----------------------0-2---------x---2---0-2------|

                                             With Guilt...    ...should carry

0:17                                                                     0:26
            Bm                                        F#m
e|------2-2--------2-------x---2--------2------------------2----x-2---2-----|
B|------2-2--------3-------x---3--------3------------------2----x-2---2-----|
G|------2-2--------4-------x---4--------4------------------2----x-2---2-----|
D|-x-4------------------------------------------0---------------------------|
A|-x--------0-2--------0h2---2---0-2--------0-2---2-0-----------------------|
E|-x--------------------------------------------------2-------------2---0-2-|

               Heavy enough...           ...buried        I see... ...tonight

0:26                                                     0:33
                  Bm
e|---2----x-2---2-------2--------2--------2----------2----|
B|---2----x-2---2-------3--------3--------3----------3----|
G|---2----x-2---2-------4----x---4--------4----x-4---4----|
D|---------------------------x-----------------x----------|
A|----------------0-2--------x-2---0-2---------x---2---2--|
E|------------2-------------------------------------------|

                    's got me...   ...run and hide
_____________________________________________________________________________

The chorus is C#m and Bm. Lift your finger up and let the open A ring
from time to time. Sound is so thick it's hard to hear the rhythm,
easy enough to improvise though. He mixes it up live anyways.

    C#m  Bm
e|-----------|
B|---5---3---|
G|---6---4---|
D|---6---4---|
A|---4---2---|
E|-----------|
Suggest correction
Creating personal tab
Creating personal tab
You can edit any tab online and save it as your Personal.

You can edit, replace or remove any tab part or add personal notes – all changes will be seen only by you.

Personal tabs can be accessed anytime from any device, even offline.
Learn more »
comments
print report bad tab
5 comments total. Showing first comments.
-2 reply
Nlmclain311 10 Nov 20, 2012 09:56 AM

This is pathetic. You are an idiot.

0 reply
RTennyson17 10 Aug 22, 2013 09:47 AM

I can't hear the chorus but the riff us spot on

guest
You may want to rate the tab now too:
select rating
Wanna post a correction for this tab? Suggest correction