Oops, an error
Loading. Please wait.

Psychotic Girl bass

version 1
version 1

Whole song

Interactive

16,817 views 18 this week
no commentswrite comment
1 2 3 4 5
x 7
add to favorites
×
Save as Personal and add changes to this tab that will be seen only by you. Learn more ›
×
You can save this tab as Personal to edit and correct it or add notes. All changes will be seen only by you. Learn more »
launch autoscroll
font size
0
reset
guitar tuner
edit
Autoscroll
slow
fast
+/-
esc
set tempo
stop
Author
Difficulty
Black Keys - Psychotic Girl


G|-------------------7------------6-------------9-----------------------------|
D|--------5-------------8------------7-------------10-------------------------|
A|-------------------------8------------7--------------10---------------------|
E|--3-----------3/6-----------6\5-----------5/8------------8\3----------------|


G|-------------------7------------6-------------5-----------------------------|
D|--------5-------------8------------7-------------6--------------------------|
A|-------------------------8------------7-------------6-----------------------|
E|--------------3/6-----------6\5-----------5\4----------4\3------------------|




This can be a bit tricky because the notes on the 'E' string are played over the rest. 
You can make it a bit easier by ignoring the slides and just playing the first note e.g. 3,6,5,8.

            
            
Suggest correction
Creating personal tab
Creating personal tab
You can edit any tab online and save it as your Personal.

You can edit, replace or remove any tab part or add personal notes – all changes will be seen only by you.

Personal tabs can be accessed anytime from any device, even offline.
Learn more »
comments
print report bad tab
guest
You may want to rate the tab now too:
select rating
Wanna post a correction for this tab? Suggest correction