Oops, an error
Loading. Please wait.

Same Old Thing tab

version 3
version 3

Whole song

14,466 views 9 this week
2 commentsread comments
1 2 3 4 5
x 4
add to favorites
×
Save as Personal and add changes to this tab that will be seen only by you. Learn more ›
×
You can save this tab as Personal to edit and correct it or add notes. All changes will be seen only by you. Learn more »
launch autoscroll
font size
0
reset
how to read this tab
guitar tuner
edit
Autoscroll
slow
fast
+/-
esc
set tempo
stop
The Black Keys

Same Old Thing (live at Abbey Road) 

http://www.youtube.com/watch?v=Wvqh6eH7AMA

_____________________________________________________________________________

[Intro/Verse]

e|--------------------------------|-------------------------------------|
B|--------------------------------|-------------------------------------|
G|--------------------------------|-------------------------------------|
D|---------------7v---------------|-------------------------------------|
A|--3-5(p0)--------------(0)-(0)--|7v----(0)-(0)-5v----(0)-(0)-2h3p2h3--|
E|5---------5---------------------|-------------------------------------|


Variation

e|--------------------------------|-------------------------------------|
B|--------------------------------|-------------------------------------|
G|--------------------------------|-------------------------------------|
D|---------------7v-(7)/10v---\7--|-------------------------------------|
A|--3-5(p0)-----------------------|7v----(0)-(0)-5v----(0)-(0)-2h3p2h3--|
E|5---------5---------------------|-------------------------------------|x2


Variation II

e|-----------------------------|-------------------------------------|
B|-----------------------------|-------------------------------------|
G|-----------------------------|-------------------------------------|
D|---------------7v----5b------|-------------------------------------|
A|--3-5(p0)--------------------|7v----(0)-(0)-5v----(0)-(0)-2h3p2h3--|
E|5---------5------------------|-------------------------------------|x2

_____________________________________________________________________________

[Chorus] (when the 2nd chorus comes play it twice)

e|---------------------------|-----------------------------|
B|---------------------------|-----------------------------|
G|-----(0)-------------------|-----------------------------|
D|-----(0)-------------------|-----------------------------|
A|5----(0)---3p2--0----------|5-5-5-5-5-----3p2-0----------|
E|---------------------3b----|-----------------------3b----|


e|---------------------------|-----------------------------|
B|---------------------------|-----------------------------|
G|-----(0)-------------------|-----------------------------|
D|-----(0)-------------------|-----------5-----------------|
A|5----(0)---3p2--0----------|-----7p5-7---7v--------------|
E|---------------------3b----|0----------------------------|

_____________________________________________________________________________

[Breakdown]

  A

e|------------------------------|
B|------------------------------|
G|6-6-6-6-6----------------(0)--| 
D|7-7-7-7-7------------5h7-(0)--|
A|7-7-7-7-7---5----h7------(0)--|
E|5-5-5-5-5---------------------|


  D               C           G           A

e|------------------------------------------|
B|------------------------------------------|
G|11-11-11-11-----9--9--9--9--------4-4-4/6-|
D|12-12-12-12-----10-10-10-10-------5-5-5/7-|
A|12-12-12-12-----10-10-10-10-------5-5-5/7-|
E|10-10-10-10-----8--8--8--8--3-----3-3-3/5-|


  A

e|----------------5--------5-----------5----------------|
B|----------------5-----8b--8b(10)-----5----------------|
G|6-6-6-(0)-7b(9)-x----------------------7b(9)r(7)-(0)--|
D|7-7-7-(0)-------0--------------------------------(0)--|
A|7-7-7-(0)----------------------------------------(0)--|
E|5-5-5-------------------------------------------------|


  D               C                 G

e|-------------------------------------------|
B|-------------------------------------------|
G|11-11-11-11-----9--9--9--9--4-----4-4-4----|
D|12-12-12-12-----10-10-10-10-5-----5-5-5----|
A|12-12-12-12-----10-10-10-10-5-----5-5-5----|
E|10-10-10-10-----8--8--8--8--3-----3-3-3----|


  A               

e|-----5--------5--------5--------5-------------|
B|-----5-5------5-5------5-5------5-5-----------|
G|6------7b(9)----7b(9)----7b(9)----7b(9)--(0)--|
D|7----------------------------------------(0)--|
A|7----------------------------------------(0)--|
E|5---------------------------------------------|


  D               C          G     G#   

e|------------------------------------|
B|------------------------------------|
G|11-11-11-11-----9--9--9--x-4--4--5--|
D|12-12-12-12-----10-10-10-x-5--5--6--|
A|12-12-12-12-----10-10-10-x-5--5--6--|
E|10-10-10-10-----8--8--8--x-3--3--4--|


  A

e|--------------8-------8b-----0------------|
B|----5---8---5-------5--------0------------|
G|6-x-5-------5-------5----------7b(9)-(0)--|
D|7-x----------------------------------(0)--|
A|7-x----------------------------------(0)--|
E|5-x---------------------------------------|


  D               C          G  

e|-----------------------------------------|
B|-----------------------------------------|
G|11-11-11-11-----9--9--9--x-4-4------(0)--|
D|12-12-12-12-----10-10-10-x-5-5------(0)--|
A|12-12-12-12-----10-10-10-x-5-5------(0)--|
E|10-10-10-10-----8--8--8--x-3-3-----------|

______________________________________________

Key

 b : Bend 
 r : Release
 / : Slide into
 \ : Slide out of
 h : Hammer on
 p : Pull off
(-): Ghost note
 v : Vibrato
 x : Mute
 u : Up stroke
 d : Down stroke
 T : Fret with thumb

            
            
Suggest correction
Creating personal tab
Creating personal tab
You can edit any tab online and save it as your Personal.

You can edit, replace or remove any tab part or add personal notes – all changes will be seen only by you.

Personal tabs can be accessed anytime from any device, even offline.
Learn more »
comments
print report bad tab
2 comments total.
-2 reply
TheMattones 32 May 15, 2012 06:48 PM

e|-----------------------------------------|
B|-----------------------------------------|
G|-----------------------------------------|
D|------------7~---------------------------|
A|---0--2--5------7-------5----2h3p2p0-----|
E|-------------------7---------------------|

I play it like this.

0 reply
rdyseth 10 Feb 24, 2014 07:06 PM

this is pretty darn close. he plays with different variations live but he does that with every song he plays. this tab is just like how he plays it on the record.

guest
You may want to rate the tab now too:
select rating
Wanna post a correction for this tab? Suggest correction