Oops, an error
Loading. Please wait.

Stack Shot Billy tab

version 2
version 2

Whole song

Interactive

12,658 views 3 this week
no commentswrite comment
1 2 3 4 5
x 3
add to favorites
×
Save as Personal and add changes to this tab that will be seen only by you. Learn more ›
×
You can save this tab as Personal to edit and correct it or add notes. All changes will be seen only by you. Learn more »
launch autoscroll
font size
0
reset
how to read this tab
guitar tuner
edit
Autoscroll
slow
fast
+/-
esc
set tempo
stop
Author
Difficulty
Main Riff (Played OVER The Verses)
Eb|--0-----------------------0----------|
G#|-----3--1-----------1--3-----1-------|
F#|-----------2--0--2-------------------|
C#|-------------------------------------|
G#|--0--0--0--0--0--0--0--0--0--0-------|
Eb|-------------------------------------|

Eb|--0----------------------------------|
G#|-----3--1-----------1--3--1--2-------|
F#|-----------2--0--2-------------------|
C#|-------------------------------------|
G#|--0--0--0--0--0--0--0--0--0--0-------|
Eb|-------------------------------------|

The Chorus Is played with lots of Improvisation, especially when he plays with a slide, 
tabbed the first chorus, and left the improvisation up to you =)

Chorus

Stack shot Billy----
Eb|--5-5-5-3--3h5--3--------------|
G#|--5-5-5-3---------5--3---------|
F#|--6-6-6-4---------------5--2---|
C#|--7-7-7-5----------------------|
G#|--7-7-7-5----------------------|
Eb|--5-5-5-3----------------------|

Forty      Fi ive----
Eb|--5-5-5-3----------------------|
G#|--5-5-5-3--3h5--3--------------|
F#|--6-6-6-4----------5--2--0--2--|
C#|--7-7-7-5----------------------|
G#|--7-7-7-5----------------------|
Eb|--5-5-5-3----------------------|

Stack shot Billy----
Eb|--5-5-5-3----------------------|
G#|--5-5-5-3--5-------------------|
F#|--6-6-6-4-----5--2--0--2-------|
C#|--7-7-7-5----------------------|
G#|--7-7-7-5----------------------|
Eb|--5-5-5-3----------------------|

Billy laid down and died-----
Eb|--0----------------------------|
G#|-----3--1----------------------|
F#|-----------2--0h2--------------|
C#|-------------------------------|
G#|--0--0--0--0--0----------------|
Eb|-------------------------------|

            
            
Suggest correction
Creating personal tab
Creating personal tab
You can edit any tab online and save it as your Personal.

You can edit, replace or remove any tab part or add personal notes – all changes will be seen only by you.

Personal tabs can be accessed anytime from any device, even offline.
Learn more »
Give kudos to tab author, rate the tab!
1 2 3 4 5
comments
print report bad tab
guest
You may want to rate the tab now too:
select rating
Wanna post a correction for this tab? Suggest correction