Oops, an error
Loading. Please wait.

Strange Times tab

version 2
version 2

Whole song

Interactive

74,037 views 78 this week
6 commentsread comments
1 2 3 4 5
x 31
add to favorites
×
Save as Personal and add changes to this tab that will be seen only by you. Learn more ›
×
You can save this tab as Personal to edit and correct it or add notes. All changes will be seen only by you. Learn more »
launch autoscroll
font size
0
reset
how to read this tab
guitar tuner
backing track
0:00
0:00
edit
Autoscroll
slow
fast
+/-
esc
set tempo
stop
Song: Strange Times
Artist: The Black Keys
Album: Attack & Release

[Main Riff \ Intro]

e|-----------------------------------------|
B|-----------------------------------------|
G|-----------------------------------------|
D|-----------------------------------4-3-2-|
A|------4-6------------4-------------------|
E|--4-6-----4-6----4-6---6-4-2-2-0-2-------|

e|-----------------------------------------|
B|-----------------------------------------|
G|-----------------------------------------|
D|-----------------------------------------|
A|------4-6------------4-----------4/9-8-7-|
E|--4-6-----4-6----4-6---6-4-2--2----------|


[Verse Riff]

e|--------------------------------------|
B|--------------------------------------|
G|--------------------------------------| x4
D|--------------------------------------|
A|--------------------------------------|
E|--4-6-----4-6--4-6--0-2----0-2--0-2---|


[Chorus]

    A#m                      F#
e|--6--6--6--6--6--6--6--6--2--2--2--2--2--2--2--2--|
B|--6--6--6--6--6--6--6--6--2--2--2--2--2--2--2--2--|
G|--6--6--6--6--6--6--6--6--3--3--3--3--3--3--3--3--| x2
D|--8--8--8--8--8--8--8--8--4--4--4--4--4--4--4--4--|
A|--8--8--8--8--8--8--8--8--4--4--4--4--4--4--4--4--|
E|--6--6--6--6--6--6--6--6--2--2--2--2--2--2--2--2--|
 

[Main riff]

e|-----------------------------------------|
B|-----------------------------------------|
G|-----------------------------------------|
D|-----------------------------------4-3-2-|
A|------4-6------------4-------------------|
E|--4-6-----4-6----4-6---6-4-2-2-0-2-------|

e|-----------------------------------------|
B|-----------------------------------------|
G|-----------------------------------------|
D|-----------------------------------------|
A|------4-6------------4-----------4/9-8-7-|
E|--4-6-----4-6----4-6---6-4-2--2----------|


[Verse Riff]

e|--------------------------------------|
B|--------------------------------------|
G|--------------------------------------| x4
D|--------------------------------------|
A|--------------------------------------|
E|--4-6-----4-6--4-6--0-2----0-2--0-2---|


[Chorus]

    A#m                      F#
e|--6--6--6--6--6--6--6--6--2--2--2--2--2--2--2--2--|
B|--6--6--6--6--6--6--6--6--2--2--2--2--2--2--2--2--|
G|--6--6--6--6--6--6--6--6--3--3--3--3--3--3--3--3--| x2
D|--8--8--8--8--8--8--8--8--4--4--4--4--4--4--4--4--|
A|--8--8--8--8--8--8--8--8--4--4--4--4--4--4--4--4--|
E|--6--6--6--6--6--6--6--6--2--2--2--2--2--2--2--2--|
 

[Main riff]

e|-----------------------------------------|
B|-----------------------------------------|
G|-----------------------------------------|
D|-----------------------------------4-3-2-|
A|------4-6------------4-------------------|
E|--4-6-----4-6----4-6---6-4-2-2-0-2-------|

e|-----------------------------------------|
B|-----------------------------------------|
G|-----------------------------------------|
D|-----------------------------------------|
A|------4-6------------4-----------4/9-8-7-|
E|--4-6-----4-6----4-6---6-4-2--2----------|


[Verse Riff]

e|--------------------------------------|
B|--------------------------------------|
G|--------------------------------------|
D|--------------------------------------| x4
A|--------------------------------------|
E|--4-6-----4-6--4-6--0-2----0-2--0-2---|


[Chorus]

    A#m                      F#
e|--6--6--6--6--6--6--6--6--2--2--2--2--2--2--2--2--|
B|--6--6--6--6--6--6--6--6--2--2--2--2--2--2--2--2--|
G|--6--6--6--6--6--6--6--6--3--3--3--3--3--3--3--3--| x2
D|--8--8--8--8--8--8--8--8--4--4--4--4--4--4--4--4--|
A|--8--8--8--8--8--8--8--8--4--4--4--4--4--4--4--4--|
E|--6--6--6--6--6--6--6--6--2--2--2--2--2--2--2--2--|
 

[Main Riff \ Outro]

e|-----------------------------------------|
B|-----------------------------------------|
G|-----------------------------------------|
D|-----------------------------------4-3-2-|
A|------4-6------------4-------------------|
E|--4-6-----4-6----4-6---6-4-2-2-0-2-------|

e|-----------------------------------------|
B|-----------------------------------------|
G|-----------------------------------------|
D|-----------------------------------------|
A|------4-6------------4-----------4/9-8-7-|
E|--4-6-----4-6----4-6---6-4-2--2----------|

e|-----------------------------------------|
B|-----------------------------------------|
G|-----------------------------------------|
D|-----------------------------------4-3-2-|
A|------4-6------------4-------------------|
E|--4-6-----4-6----4-6---6-4-2-2-0-2-------|

e|-----------------------------------------------||
B|-----------------------------------------------||
G|-----------------------------------------------||
D|-----------------------------------------------||
A|------4-6------------4-----------4/9-8-7-------||
E|--4-6-----4-6----4-6---6-4-2--2-----------4-6--||



************************************

| /  Slide up

************************************
Suggest correction
Creating personal tab
Creating personal tab
You can edit any tab online and save it as your Personal.

You can edit, replace or remove any tab part or add personal notes – all changes will be seen only by you.

Personal tabs can be accessed anytime from any device, even offline.
Learn more »
comments
print report bad tab
6 comments total. Showing first comments.
+4 reply
s7706 801 Jul 29, 2008 09:10 AM

Great Tab but i'm pretty sure the riff goes like this:

e|-----------------------------------------|
B|-----------------------------------------|
G|-----------------------------------------|
D|-----------------------------------------|
A|-----4-6----------4-------------4s9-8-7--|
E|-4-6-----4-6--4-6---6-4-2-2-0-2----------|

Cheers mate.

0 reply
CrazyYaz 725 Sep 16, 2008 03:13 AM

yea s7706 is right. Its still a 5* tab though. Good job

0 reply
DiscomfortSitty 10 Dec 12, 2011 09:40 AM

perfect 5 stars. just saying though for beginers for the chours
e-------------------------------------------------------|
B-------------------------------------------------------|
G-------------------------------------------------------|
D-------------------------------------------------------|
A8--8--8--8--8--8--8--8--4--4--4--4--4--4--4--4---------|
E6--6--6--6--6--6--6--6--2--2--2--2--2--2--2--2---------|

guest
You may want to rate the tab now too:
select rating
Wanna post a correction for this tab? Suggest correction