Oops, an error
Loading. Please wait.

Weight Of Love Tab

version 2
version 2

Whole song

Interactive

65,037 views 678 this week
16 commentsread comments
1 2 3 4 5
excellent!
x 62
add to favorites
launch autoscroll
font size
0
reset
how to read this tab
guitar tuner
Tab Pro tools
  • play this tab
  • loop segment
  • change instrument
  • show fretboard
  • metronome
Autoscroll
slow
fast
+/-
esc
set tempo
stop
Contributor
The Black Keys
Weight of Love
Turn Blue

Intro:
E|-------------------------------------------------|--
B|--3p2--0--0--0--0--0--0--0--0--2--2--2--2--2--2--|--
G|--2----0--0--0--0--0--0--0--0--2--2--2--2--2--2--|--
D|--2----2--2--2--2--2--2--2--0--2--2--2--2--2--2--|--
A|-------2--2--2--2--2--2--2--0--0--0--0--0--0--0--|--
E|-------------------------------------------------|--

E|--------------------------------------------------|--
B|--3--2--0--0--0--0--0--0--3--2--2--2--2--2--2--2--|--
G|--2--2--0--0--0--0--0--0--2--2--2--2--2--2--2--2--|--
D|--2--2--2--2--2--2--2--2--2--2--2--2--2--2--2--2--|--
A|--------2--2--2--2--2--2--------0--0--0--0--0--0--|--    x8
E|--------------------------------------------------|--
(alternate with b--2/3\2--, -2h3p2-, and -3p2-)


Rhythm for solo 1:
Acoustic:
E|---------------------------------------------------|--
B|--2h3p2--0--0--0--0--0--0--0--0--2--2--2--2--2--2--|--
G|--2------0--0--0--0--0--0--0--0--2--2--2--2--2--2--|--
D|--2------2--2--2--2--2--2--2--2--2--2--2--2--2--2--|--
A|---------2--2--2--2--2--2--2--2--0--0--0--0--0--0--|--    x6
E|---------------------------------------------------|--
Electric:
E|-----------------|--
B|--2h3p2--0~--2~--|--
G|-----------------|--
D|-----------------|--
A|-----------------|--  x6
E|-----------------|--


Solo 1:
E|---------|-----------------|--------------------------------------------|--
B|---------|-----------------|--10--10--10--7~--/12\10\7/10--10\7--5h7p5--|--
G|--9~--~--|--7p6~--7--7/9~--|--------------------------------------------|--
D|---------|-----------------|--------------------------------------------|--
A|---------|-----------------|--------------------------------------------|--
E|---------|-----------------|--------------------------------------------|--

E|--------------------------------------------------|----------------|--
B|--10h12--10h12--10h12--10/7~--10h12--10h12--10\7--|--7h10p7\5--5~--|--
G|--------------------------------------------------|----------------|--
D|--------------------------------------------------|----------------|--
A|--------------------------------------------------|----------------|--
E|--------------------------------------------------|----------------|--

E|-----------------------------|-----------------------------------------|--
B|-----------------------------|-----------------------------------------|--
G|--7/9\7\6~--6h7p6p4\2/4~--~--|------------7--9b11r9--9b11r9--9h11p9\4--|--
D|-----------------------------|--7b9r7--9-------------------------------|--
A|-----------------------------|-----------------------------------------|--
E|-----------------------------|-----------------------------------------|--

E|----------------------------------------------|----------------|--
B|----------------------------------------------|----------------|--
G|--7/9-9-9\7~--9b11--9b11--9b11--9b11~--r9\4~--|----------------|--
D|----------------------------------------------|--7-------------|--
A|----------------------------------------------|-----9\7--5/7~--|--
E|----------------------------------------------|----------------|--

Verse:
(each chord is strummed once with whammy bar)

Asus2                                   G
I used to think, darlin', you never did nothin'
                                   D
But you were always up to somethin'
                  C
Always had a run in
Asus2                                   G
I got to think those days are comin' to get ya
                           D
Now nobody want to protect yah
                         C
They only want to forget yah

Chorus: 
(strum chords)

Em                   D
You'll be on my mind
               A
Don't give yourself away
       G            D
To the weight of love
Em                      D
You'll be on your side
               C
Don't give yourself away
    B
The weight of, weight of love


E|-----------------|--
B|--2h3p2--0~--2~--|--
G|-----------------|--
D|-----------------|--
A|-----------------|--   x6 (under solo 2)
E|-----------------|--

Solo 2:
E|-----------------------------------|-------------------------|--
B|-----------------------------------|-------------------------|--
G|--7b9r7---------9b11r9--7h9--9--7--|--7--7--7b9r7------------|--
D|---------7h9p7---------------------|---------------7h9p7--5--|--
A|-----------------------------------|-------------------------|--
E|-----------------------------------|-------------------------|--

E|---------------------|-----------------------------------|--
B|---------------------|-----------------------------------|--
G|--9b11r9--7h9--9--7--|--7--9b11--11--11--11--11r9--7--9--|--
D|---------------------|-----------------------------------|--
A|---------------------|-----------------------------------|--
E|---------------------|-----------------------------------|--

E|---------------------------------------|--------------------|--
B|---------------------------------------|--------------------|--
G|--7b9r7b9r7--9b11-11-11-11-11r9--7--9--|--7/9\7\6--6h7p6\4~-|--
D|---------------------------------------|--------------------|--
A|---------------------------------------|--------------------|--
E|---------------------------------------|--------------------|--

E|-------------------------------|--
B|-------------------------------|--
G|-------------------------------|--
D|--9\7--7/9\7\4~--7-------------|--
A|--------------------9--7\5/7~--|--
E|-------------------------------|--


Verse:
(each chord is strummed once with whammy bar)

Asus2                                             G
Dance all night cause people, they don't wanna be lonely
                    D
Never wanna be lonely
                          C
They don't wanna be an only, one
Asus2                                G
You had a thing no one could ever be sure of
                          D
Never ever had a pure love
                       C
And never no cure from


Chorus: 
(strum chords)

Em                   D
You'll be on my mind
               A
Don't give yourself away
       G            D
To the weight of love
Em                      D
You'll be on your side
               C
Don't give yourself away
    B
The weight of, weight of love


Solo chords (strummed):
Em  D  A  G  D
Em  D  C  B
(x3)

Solo 3:
(at some points the 2nd guitar is an octave above/below, some others it's just playing 

an E note)
E|--------------------------------------------------------------------|--
B|----------------10--10--10--7~--10/12--12\10--7--7--10--10--12--12--|--
G|--7p6~--7--7/9~-----------------------------------------------------|--
D|--------------------------------------------------------------------|--
A|--------------------------------------------------------------------|--
E|--------------------------------------------------------------------|--

E|----------14--12------------------|----------12--12b14r12------------------|--
B|--12--12----------15--12--12--15--|--12--15----------------15--12--12--15--|--
G|----------------------------------|----------------------------------------|--
D|----------------------------------|----------------------------------------|--
A|----------------------------------|----------------------------------------|--
E|----------------------------------|----------------------------------------|--

E|----------12--15--15--15--15--12--12--12--12--------------------------------|--
B|--12--15--------------------------------------15--15--15--15--12h15p12------|--
G|------------------------------------------------------------------------14--|--
D|----------------------------------------------------------------------------|--
A|----------------------------------------------------------------------------|--
E|----------------------------------------------------------------------------|--

E|--------------------------------------------|--------------|--
B|--------------------------------------------|--------------|--
G|--14b16r14--12--12--14b16r14--12--14p12h14--|------12--14--|--
D|--------------------------------------------|--14----------|--
A|--------------------------------------------|--------------|--
E|--------------------------------------------|--------------|--

E|--------------------------|--
B|--------------------------|--
G|--14b16r14p12--14-b-15.5--|--
D|--------------------------|--
A|--------------------------|--  x4 
E|--------------------------|--  

E|---------------|--
B|--/12--15--15--|--
G|---------------|--
D|---------------|--
A|---------------|-- x4
E|---------------|--

E|--15--12--15--17b19r17--15--12--15--12------------------------------|--
B|----------------------------------------15--12----------------------|--
G|------------------------------------------------14--12--14--12--14--|--
D|--------------------------------------------------------------------|--
A|--------------------------------------------------------------------|--
E|--------------------------------------------------------------------|--

E|-------------------------------|-------------------------------|--
B|-------------------------------|-------------------------------|--
G|-------------------------------|-------------------------------|--
D|--14b16r14p12--14--12------12--|--14b16r14p12--14--12------12--|--
A|-----------------------14------|-----------------------14------|--
E|-------------------------------|-------------------------------|--

E|--------------------------------------------------|--
B|--------------------------------------------------|--
G|--------------------------------------------------|--
D|--14b16~--r14p12h14p12--------------12------------|--
A|------------------------14--12--14------14\12/14--|--
E|--------------------------------------------------|--

E|------------------------------------------|-----------------------------|--
B|------------------------------------------|-----------------------------|--
G|------------------------------------------|------7----------------------|--
D|--12--------------------------------------|---------9--7\5/7\5--7\5/7~--|--
A|------14--12\10--12--10--7------7--10--7--|--10-------------------------|--
E|----------------------------10------------|-----------------------------|--

E|------15--17b19--17b19--17b19--17b19--17b19--15h17p15--|--
B|--17---------------------------------------------------|--
G|-------------------------------------------------------|--
D|-------------------------------------------------------|--
A|-------------------------------------------------------|--  x2
E|-------------------------------------------------------|--

E|---------15------15--17--15--------------15--17--15--------------15--17--15------|-
B|-15--17------17--------------17--15--17--------------17--15--17--------------17--|-
G|---------------------------------------------------------------------------------|-
D|---------------------------------------------------------------------------------|-
A|---------------------------------------------------------------------------------|-
E|---------------------------------------------------------------------------------|-

E|----------15------15--17--15------15--17--19--19--19--|--
B|--15--17------17--------------17----------------------|--
G|------------------------------------------------------|--
D|------------------------------------------------------|--
A|------------------------------------------------------|--
E|------------------------------------------------------|--

E|--17b19r17------------------15------------------|--
B|------------17------15--17------17--15------15--|--
G|----------------16----------------------16------|--
D|------------------------------------------------|--  x3
A|------------------------------------------------|--

E|-------------------------------------------------------------|--
B|--17b19r17p15--17b19r17p15--17b19r17p15--17b19r17p15--17b19--|--
G|-------------------------------------------------------------|--
D|-------------------------------------------------------------|--
A|-------------------------------------------------------------|--
E|-------------------------------------------------------------|--

E|--10~--9~--9\7~---------------------------------|--
B|-----------------7--10--7~----------------------|--
G|--------------------------------7--9~--(b11r9)--|--
D|-----------------------------9------------------|--
A|------------------------------------------------|--  x2
E|------------------------------------------------|--

Outro (strummed once with whammy):
Ab Ab




*Please rate and leave comments/corrections if needed*
comments
print report bad tab
16 comments total. Showing first comments.
+4 reply
hubix wrote on May 25 2014, 04:40 pm

Oh god, I've been looking for this since the album came out. Thanks for this tab, it sounds great.

+2 reply
MikeTz wrote on May 26 2014, 01:58 am

This is ten times better than the tab I posted (version 1), which wasn't mine anyway. This one is just better written, with all the right vibrato and slide signs. 5 stars all the way!

+2 reply
habalushy wrote on May 26 2014, 09:38 pm

thanks man! i saw you posted one and was like, "ah i just spent all this time figuring it out" haha, but I never actually checked it out.

I want to post or [tab]
guest
You may want to rate the tab now too:
select rating
Please do not post tabs as comments. Select "correction" instead!