Oops, an error
Loading. Please wait.
We have Chord Pro version of Weight Of Love.
It's the closest thing you can get to the original song and it has interactive parts. Check out the tab »
×

Weight Of Love tab

version 4
version 4

Whole song

  • After using both the Tab Pro version and the highe... Show more
  • It was necessary to post this tab because: 1) pre-... Show more

Interactive

292 views 12 this week
no commentswrite comment
1 2 3 4 5
1 last vote to show rating
add to favorites
×
Save as Personal and add changes to this tab that will be seen only by you. Learn more ›
×
You can save this tab as Personal to edit and correct it or add notes. All changes will be seen only by you. Learn more »
launch autoscroll
font size
0
reset
how to read this tab
guitar tuner
edit
Autoscroll
slow
fast
+/-
esc
set tempo
stop
Author
Difficulty
About this tab version
It was necessary to post this tab because: 1) pre-existing tabs don't accurately show the soloing with respect to the beat. 2) pre-existing tabs have more than 5 errors in note pitch. 3) pre-existing tabs have more than 5 errors in legato 4) pre-existing tabs have cumbersome fretboard placement of a few notes. Areas of difference, denoted by a ?, can be seen for the 1st solo and chorus. I wrote the acoustic intro and solos note for note with my own ear. I've copied the verse and chorus from irhagzy and reformatted it. Was this info helpful? Yes No
                                  ~~~~~~~~~~~~~~~~~~~~~~~~~~~~~~~~~~~~~~~~
                                               Weight of Love         
                                               The Black Keys
                                                 Turn Blue 
                                  ~~~~~~~~~~~~~~~~~~~~~~~~~~~~~~~~~~~~~~~~
Tabbed by: coman91 and irhagzy
Tuning: Standard
Youtube Link: https://www.youtube.com/watch?v=xUUp2xVji-0 (corroborates pitch and technique)


Playing and reading notes:
1) Note duration isn't fully tabbed. For example, at 0:52 the 2/5\2 slide actually sustains for 7 beats.
2) Rhythm guitar isn't tabbed because I don't really care to do it. It's similar enough to the acoustic intro.
3) There is an electric bass, most prominent at 1:43, that isn't tabbed here.
4) I tab most of the acoustic chorus (2:34) chords as barre chords only because that's what's easiest for me.
 

Key:
where # represents a fret number

#h# - hammer
#p# - pull
/ \ - slides, up and down respectively.
#b# - bend from normal note up to achieve bended note.
#r# - release bend from bended note to normal note.
pb# - on fret #, bend up a whole step then attack and release
 b  - picking at top of bend
#b  - a slight bend a.k.a. a curl or a lean.
 x  - mute
 ~  - sustain. helps fill in space to convey the correct length
      of time for which a note is sustained.
 *, ^ - symbols for beat progression.
 ?  - places where mistakes were seen in previous tabs.



Intro: 
Acoustic, the elecrtic is not tabbed here as it is similar enough.  
    
                       
  0:00
     
e|-----------------------------------------------------------------|
B|---------------------------------------------------------3~p~2---|
G|-----------------------------------------------------------------|
D|-----------------------------------------------------------------|
A|-----------------------------------------------------------------|
E|-----------------------------------------------------------------|
                                                           *   *  

  0:01

e|---------0---0-0---0-0---0-------------------------------0---0---| 
B|---------0---0-0---0-0---0-------2---2---2---2-2---2-2---3---2---|
G|-0-------0---0-0---0-0---0---0---2---2---2---2-2---2-2-----------|
D|-2-------2---2-2---2-2---2---2---2---2---2---2-2---2-2-----------|
A|-2-------2---2-2---2-2---2---2---0---0---0---0-0---0-0-----------|
E|-0-------0---0-0---0-0---0---0-----------------------------------| 
   *   *   *   *   *   *   *   *   *   *   *   *   *   *   *   *    

  0:07

e|---------0---0-0---0-----0---0---------------------------0-------| 
B|---------0---0-0---0-----3---2---2-------2---2-2---2-2-2-3~p~2---|
G|-0-------0---0-0---0-----0---0---2-------2---2-2---2-2-2---------|
D|-2-------2---2-2---2-------------2-------2---2-2---2-2-2---------|
A|-2-------2---2-2---2-------------0-------0---0-0---0-0-0---------|
E|-0-------0---0-0---0---------------------------------------------| 
   *   *   *   *   *   *   *   *   *   *   *   *   *   *   *   *  

  0:14
                                                           
e|---------0---0-0---0-0-0-0-------------------------------0-------| 
B|---------0---0-0---0-0-0-3~p~2---2-------2---2-2---2-2-2-2/3\2---|
G|-0-------0---0-0---0-0-0---------2-------2---2-2---2-2-2---------|
D|-2-------2---2-2---2-2-2---------2-------2---2-2---2-2-2---------|
A|-2-------2---2-2---2-2-2---------0-------0---0-0---0-0-0---------|
E|-0-------0---0-0---0-0-0-----------------------------------------| 
   *   *   *   *   *   *   *   *   *   *   *   *   *   *   *   *   

  0:20
                                                           Electric kicks in
e|---------0---0-0-0-0-0---0-------------------------------0-------| 
B|---------0---0-0-0-0-0---3-------2-------2---2-2---2-2-2-3~p~2---|
G|-0-------0---0-0-0-0-0---0-------2-------2---2-2---2-2-2---------|
D|-2-------2---2-2-2-2-2---2-------2-------2---2-2---2-2-2---------|
A|-2-------2---2-2-2-2-2---2-------0-------0---0-0---0-0-0---------|
E|-0-------0---0-0-0-0-0---0---------------------------------------| 
   *   *   *   *   *   *   *   *   *   *   *   *   *   *   *   *    

  0:27

e|---------0---0-0---0-0---0-------------------------------0---0---| 
B|---------0---0-0---0-0---0-------2-------2---2-2---2-2---2---2---|
G|-0-------0---0-0---0-0---0-------2-------2---2-2---2-2-----------|
D|-2-------2---2-2---2-2---2-------2-------2---2-2---2-2-----------|
A|-2-------2---2-2---2-2---2-------0-------0---0-0---0-0-----------|
E|-0-------0---0-0---0-0---0---------------------------------------| 
   *   *   *   *   *   *   *   *   *   *   *   *   *   *   *   *    

  0:33

e|---------0---0-0---0-0---0-------------------------------0-------| 
B|---------0---0-0---0-0---0-------2-------2---2-2---2-2---2-------|
G|-0-------0---0-0---0-0---0-------2-------2---2-2---2-2-----------|
D|-2-------2---2-2---2-2---2-------2-------2---2-2---2-2-----------|
A|-2-------2---2-2---2-2---2-------0-------0---0-0---0-0-----------|
E|-0-------0---0-0---0-0---0---------------------------------------| 
   *   *   *   *   *   *   *   *   *   *   *   *   *   *   *   *  

  0:40
 
e|---------0---0-0---0-0---0-------------------------------0-------| 
B|---------0---0-0---0-0---0-------2-------2---2-2---2-2---2-------|
G|-0-------0---0-0---0-0---0-------2-------2---2-2---2-2-----------|
D|-2-------2---2-2---2-2---2-------2-------2---2-2---2-2-----------|
A|-2-------2---2-2---2-2---2-------0-------0---0-0---0-0-----------|
E|-0-------0---0-0---0-0---0---------------------------------------| 
   *   *   *   *   *   *   *   *   *   *   *   *   *   *   *   *    

  0:46

e|---------0---0-0---0-0---0-------------------------------0-------| 
B|---------0---0-0---0-0---0-------2-------2---2-2---2-2---2-------|
G|-0-------0---0-0---0-0---0-------2-------2---2-2---2-2-----------|
D|-2-------2---2-2---2-2---2-------2-------2---2-2---2-2-----------|
A|-2-------2---2-2---2-2---2-------0-------0---0-0---0-0-----------|
E|-0-------0---0-0---0-0---0---------------------------------------| 
   *   *   *   *   *   *   *   *   *   *   *   *   *   *   *   *      
                                     

Solo 1:


  0:52
   ?
e|-----------------------------------------------------------------|
B|-2/5\2---------------------------------------------------3-------|
G|-----------------------------------------------------------------|
D|-----------------------------------------------------------------|
A|-----------------------------------------------------------------|
E|-----------------------------------------------------------------|
   *   ^   *   ^   *   ^   *   ^   *   ^   *   ^   *   ^   *   ^  



e|-----------------------------------------------------------------|
B|-3~h~5~~~~~~~~~~~~~~~~~~~~~~~~~~~~~~~~~~~~~~~~~\~0-------0---0---|
G|-----------------------------------------------------------------|
D|-----------------------------------------------------------------|
A|-----------------------------------------------------------------|
E|-----------------------------------------------------------------|
   *   ^   *   ^   *   ^   *   ^   *   ^   *   ^   *   ^   *   ^  

  0:59

e|-----------------------------------------------------------------|
B|-0~\~7-----------------------------------7/2~~~\~0~\~7~/~0-------|
G|-----------------------------------------------------------------|
D|-----------------------------------------------------------------|
A|-----------------------------------------------------------------|
E|-----------------------------------------------------------------|
   *   ^   *   ^   *   ^   *   ^   *   ^   *   ^   *   ^   *   ^  



e|-----------------------------------------------------------------|
B|-0~\~7-------------------5~h~7~p~5-------------------------------|
G|-----------------------------------------------------------------|
D|-----------------------------------------------------------------|
A|-----------------------------------------------------------------|
E|-----------------------------------------------------------------|
   *   ^   *   ^   *   ^   *   ^   *   ^   *   ^   *   ^   *   ^  

  1:05
   ?     ?   ?
e|-----------------------------------------------------------------|
B|-0h2---0h2-0h2---9~\~7-----------------------------------0h2---0h|
G|-----------------------------------------------------------------|
D|-----------------------------------------------------------------|
A|-----------------------------------------------------------------|
E|-----------------------------------------------------------------|
   *   ^   *   ^   *   ^   *   ^   *   ^   *   ^   *   ^   *   ^ 


       ?
e|-----------------------------------------------------------------|
B|h2-0/2\7-------------7h0p7~~\~~5-------------------------3---5---|
G|-----------------------------------------------------------------|
D|-----------------------------------------------------------------|
A|-----------------------------------------------------------------|
E|-----------------------------------------------------------------|
   *   ^   *   ^   *   ^   *   ^   *   ^   *   ^   *   ^   *   ^ 

  1:12
     ?                     
e|-----------------------------------------------------------------|
B|-3~\~2-------------------2h3p2p0---------------------------------|
G|---------------------------------2~/~4---------------------------|
D|-----------------------------------------------------------------|
A|-----------------------------------------------------------------|
E|-----------------------------------------------------------------|
   *   ^   *   ^   *   ^   *   ^   *   ^   *   ^   *   ^   *   ^ 



e|-----------------------------------------------------------------|
B|-----------------------------------------------------------------|
G|-----------------------------------------------------------------|
D|-----------------------------------------------------------------|
A|-----------------------------------------------------------------|
E|-----------------------------------------------------------------|
   *   ^   *   ^   *   ^   *   ^   *   ^   *   ^   *   ^   *   ^ 

  1:18

e|-----------------------------------------------------------------|
B|-------------------------2~h~5~b~7~r~5-------------------7b9-----|
G|-4b6r4-----------------------------------------------------------|
D|-----------------------------------------------------------------|
A|-----------------------------------------------------------------|
E|-----------------------------------------------------------------|
   *   ^   *   ^   *   ^   *   ^   *   ^   *   ^   *   ^   *   ^  
                                                          


e|-----------------------------------------------------------------|
B|-7-----------------------5h7p5~\~2-----------------------5b7-b---|
G|-----------------------------------------------------------------|
D|-----------------------------------------------------------------|
A|-----------------------------------------------------------------|
E|-----------------------------------------------------------------|
   *   ^   *   ^   *   ^   *   ^   *   ^   *   ^   *   ^   *   ^ 

  1:25
                                                   ?
e|-----------------------------------------------------------------|
B|-pb5r5-------------------7~b~9r7b9~~~~r7b9~~~~~~~pb7~~r~~7-------|
G|-----------------------------------------------------------------|
D|-----------------------------------------------------------------|
A|-----------------------------------------------------------------|
E|-----------------------------------------------------------------|
   *   ^   *   ^   *   ^   *   ^   *   ^   *   ^   *   ^   *   ^



e|-----------------------------------------------------------------|
B|-----------------------------------------------------------------|
G|-6-----------------------4---------------------------------------|
D|---------------------------------6~\~4-------------------2~~~/~~~|
A|-----------------------------------------------------------------|
E|-----------------------------------------------------------------|
   *   ^   *   ^   *   ^   *   ^   *   ^   *   ^   *   ^   *   ^ 

  1:32

e|-----------------------------------------------------------------|
B|-----------------------------------------------------------------|
G|-----------------------------------------------------------------|
D|~4---------------------------------------------------------------|
A|-----------------------------------------------------------------|
E|-----------------------------------------------------------------|
   *   ^   *   ^   *   ^   *   ^   *   ^   *   ^   *   ^   *   ^     

Verse 1:
Clean Electric w/ reverb and tremolo
 
  2:09, 2:21
   Am                              G
e|-5-------------------------------3-------------------------------|
B|-5-------------------------------3-------------------------------|
G|-5-------------------------------4-------------------------------|
D|-7-------------------------------5-------------------------------|
A|-----------------------------------------------------------------|
E|-----------------------------------------------------------------|
   *   *   *   *   *   *   *   *   *   *   *   *   *   *   *   * 

  2:15, 2:28
   Bm7/A                           Am7/G
e|-7-------------------------------5-------------------------------|
B|-7-------------------------------5-------------------------------|
G|-7-------------------------------5-------------------------------|
D|-7-------------------------------5-------------------------------|
A|-----------------------------------------------------------------|
E|-----------------------------------------------------------------|
   *   *   *   *   *   *   *   *   *   *   *   *   *   *   *   * 



Chorus:


Acoustic

 
  2:34
   Em                              D
e|-0---------------------------------------------------------------|
B|-0-------------------------------7-------------------------------|
G|-0-------------------------------7-------------------------------|
D|-2-------------------------------7-------------------------------|
A|-2-------------------------------5-------------------------------|
E|-0---------------------------------------------------------------|
   *   *   *   *   *   *   *   *   *   *   *   *   *   *   *   * 

  2:40
   A                               G               D
e|-5-------------------------------3-------------------------------|
B|-5-------------------------------3---------------7---------------|
G|-6-------------------------------4---------------7---------------|
D|-7-------------------------------5---------------7---------------|
A|-7-------------------------------5---------------5---------------|
E|-5-------------------------------3-------------------------------|
   *   *   *   *   *   *   *   *   *   *   *   *   *   *   *   * 

  2:46
   Em                              D
e|-0---------------------------------------------------------------|
B|-0-------------------------------7-------------------------------|
G|-0-------------------------------7-------------------------------|
D|-2-------------------------------7-------------------------------|
A|-2-------------------------------5-------------------------------|
E|-0---------------------------------------------------------------|
   *   *   *   *   *   *   *   *   *   *   *   *   *   *   *   * 

  2:52                             Corroborated at 4:30 in youtube link
   C                               B                
e|-----------------------------------------------------------------|
B|-5-------------------------------4-------------------------------|
G|-5-------------------------------4-------------------------------|
D|-5-------------------------------4-------------------------------|
A|-3-------------------------------2-------------------------------|
E|-----------------------------------------------------------------|
   *   *   *   *   *   *   *   *   *   *   *   *   *   *   *   * 


Clean Electric

  2:34
   Em                              Bm
e|-7-7-----7-7-----7-7-----7-7-----7-7-----7-7-----7-7-----7-7-----|
B|-8-8-----8-8-----8-8-----8-8-----7-7-----7-7-----7-7-----7-7-----|
G|-9-9-----9-9-----9-9-----9-9-----7-7-----7-7-----7-7-----7-7-----|
D|-----------------------------------------------------------------|
A|-----------------------------------------------------------------|
E|-----------------------------------------------------------------|
   *   *   *   *   *   *   *   *   *   *   *   *   *   *   *   * 

  
   A                               G               Bm
e|-5-5-----5-5-----5-5-----5-5-----3-3-----3-3-----7-7-----7-7-----|
B|-5-5-----5-5-----5-5-----5-5-----3-3-----3-3-----7-7-----7-7-----|
G|-6-6-----6-6-----6-6-----6-6-----4-4-----4-4-----7-7-----7-7-----|
D|-----------------------------------------------------------------|
A|-----------------------------------------------------------------|
E|-----------------------------------------------------------------|
   *   *   *   *   *   *   *   *   *   *   *   *   *   *   *   * 

  2:46
   Em                              Bm
e|-7-7-----7-7-----7-7-----7-7-----7-7-----7-7-----7-7-----7-7-----|
B|-8-8-----8-8-----8-8-----8-8-----7-7-----7-7-----7-7-----7-7-----|
G|-9-9-----9-9-----9-9-----9-9-----7-7-----7-7-----7-7-----7-7-----|
D|-----------------------------------------------------------------|
A|-----------------------------------------------------------------|
E|-----------------------------------------------------------------|
   *   *   *   *   *   *   *   *   *   *   *   *   *   *   *   * 

                                                          ?2:58
   C7                              B7                      Am
e|-8-8-----8-8-----8-8-----8-8-----7-7-----7-7-----7-7-----5-5-----|
B|-8-8-----8-8-----8-8-----8-8-----7-7-----7-7-----7-7-----5-5-----|
G|-9-9-----9-9-----9-9-----9-9-----8-8-----8-8-----8-8-----5-5-----|
D|-----------------------------------------------------------------|
A|-----------------------------------------------------------------|
E|-----------------------------------------------------------------|
   *   *   *   *   *   *   *   *   *   *   *   *   *   *   *   * 


Solo 2:

  
  3:12 

e|-----------------------------------------------------------------|
B|-5b7r5---------------------------2h5p2---------------------------|
G|-----------------------------------------------------------------|
D|-----------------------------------------------------------------|
A|-----------------------------------------------------------------|
E|-----------------------------------------------------------------|
   *   ^   *   ^   *   ^   *   ^   *   ^   *   ^   *   ^   *   ^ 



e|-----------------------------------------------------------------|
B|-7b9r7-----------------5h7~~~p~~~5---------------5-------5-------|
G|-----------------------------------------------------------------|
D|-----------------------------------------------------------------|
A|-----------------------------------------------------------------|
E|-----------------------------------------------------------------|
   *   ^   *   ^   *   ^   *   ^   *   ^   *   ^   *   ^   *   ^ 

  3:18

e|-----------------------------------------------------------------|
B|-5~b~7~r~5---------------2h5p2~~~~~~~~~\~0-----------------------|
G|-----------------------------------------------------------------|
D|-----------------------------------------------------------------|
A|-----------------------------------------------------------------|
E|-----------------------------------------------------------------|
   *   ^   *   ^   *   ^   *   ^   *   ^   *   ^   *   ^   *   ^ 



e|-----------------------------------------------------------------|
B|-7~b~9~r~7-------------5h7~~~p~~~5---------------7~~~~~~~~~~~~~b~|
G|-----------------------------------------------------------------|
D|-----------------------------------------------------------------|
A|-----------------------------------------------------------------|
E|-----------------------------------------------------------------|
   *   ^   *   ^   *   ^   *   ^   *   ^   *   ^   *   ^   *   ^ 

  3:25

e|-----------------------------------------------------------------|
B|~9-------b---b---pb7r7~p~5-------7---------------5~h~7~p~5~h~7---|
G|-----------------------------------------------------------------|
D|-----------------------------------------------------------------|
A|-----------------------------------------------------------------|
E|-----------------------------------------------------------------|
   *   ^   *   ^   *   ^   *   ^   *   ^   *   ^   *   ^   *   ^ 



e|-----------------------------------------------------------------|
B|-7b9~~r7b9r7b9r7b9~r~7~p~5-------7---------------5~h~7~p~5~\~4---|
G|-----------------------------------------------------------------|
D|-----------------------------------------------------------------|
A|-----------------------------------------------------------------|
E|-----------------------------------------------------------------|
   *   ^   *   ^   *   ^   *   ^   *   ^   *   ^   *   ^   *   ^

  3:31

e|-----------------------------------------------------------------|
B|-4h5p4\2-----------------------------------------2h4p2\0---------|
G|-----------------------------------------------------------------|
D|-----------------------------------------------------------------|
A|-----------------------------------------------------------------|
E|-----------------------------------------------------------------|
   *   ^   *   ^   *   ^   *   ^   *   ^   *   ^   *   ^   *   ^ 


                                  
e|-----------------------------------------------------------------|
B|-2~p~0\7-----------------0---------------------------------------|
G|---------------------------------1~\~9-------------------7~~~/~~~|
D|-----------------------------------------------------------------|
A|-----------------------------------------------------------------|
E|-----------------------------------------------------------------|
   *   ^   *   ^   *   ^   *   ^   *   ^   *   ^   *   ^   *   ^ 

  3:38

e|-----------------------------------------------------------------|
B|-----------------------------------------------------------------|
G|~9---------------------------------------------------------------|
D|-----------------------------------------------------------------|
A|-----------------------------------------------------------------|
E|-----------------------------------------------------------------|
   *   ^   *   ^   *   ^   *   ^   *   ^   *   ^   *   ^   *   ^ 


Repeat Verse 3:51
Repeat Chorus 4:15


Solo 3:

  4:40

e|-----------------------------------------------------------------|
B|-3~p~2---------------------------------------------------3-------|
G|-----------------------------------------------------------------|
D|-----------------------------------------------------------------|
A|-----------------------------------------------------------------|
E|-----------------------------------------------------------------|
   *   ^   *   ^   *   ^   *   ^   *   ^   *   ^   *   ^   *   ^ 



e|-----------------------------------------------------------------|
B|-3~/~5~~~~~~~~~~~~~~~~~~~~~~~~~~~~~~~~~~~~~~~~~\~0-------0---0---|
G|-----------------------------------------------------------------|
D|-------------------------------------------------0---0-----------|
A|-----------------------------------------------------------------|
E|-----------------------------------------------------------------|
   *   ^   *   ^   *   ^   *   ^   *   ^   *   ^   *   ^   *   ^ 

  4:46

e|-----------------------------------------------------------------|
B|-0~p~7---7-------------------------------0~/~2---2~\~0---7-------|
G|-----------------------------------------------------------------|
D|-----------------------------------------------------------------|
A|-----------------------------------------------------------------|
E|-----------------------------------------------------------------|
   *   ^   *   ^   *   ^   *   ^   *   ^   *   ^   *   ^   *   ^ 



e|-----------------------------------------------------------------|
B|-7---------------0-------0-------0~h~2---2---------------5-------|
G|-------------------------------------------------------------6---|
D|-----------------------------------------------------------------|
A|-----------------------------------------------------------------|
E|-----------------------------------------------------------------|
   *   ^   *   ^   *   ^   *   ^   *   ^   *   ^   *   ^   *   ^ 

  4:52

e|-----------------------------------------------------------------|
B|-5---pb7r7~p~5-------------------5-------------------5---7---pb7r|
G|-----------------6-------6-----------------------4/6-------------|
D|-----------------------------------------------------------------|
A|-----------------------------------------------------------------|
E|-----------------------------------------------------------------|
   *   ^   *   ^   *   ^   *   ^   *   ^   *   ^   *   ^   *   ^ 



e|-----------------------------------------------------------------|
B|r7~p~5---------------------------5-------------------5---7-------|
G|---------6-------6-------6-----------------------6---------------|
D|-----------------------------------------------------------------|
A|-----------------------------------------------------------------|
E|-----------------------------------------------------------------|
   *   ^   *   ^   *   ^   *   ^   *   ^   *   ^   *   ^   *   ^ 

  4:59

e|-----------------------------------------------------------------|
B|-7/0-0-0---0-----7-----7---7-----5-----5---5---------------------|
G|-------------------------------------------------6~/~8~\~6~p~4---|
D|-----------------------------------------------------------------|
A|-----------------------------------------------------------------|
E|-----------------------------------------------------------------|
   *   ^   *   ^   *   ^   *   ^   *   ^   *   ^   *   ^   *   ^ 



e|-----------------------------------------------------------------|
B|-----------------------------------------------------------------|
G|-4-------2-------2---4b6r4~p~2---4~p~2---4-----------2-------2---|
D|---------------------------------------------------------4-------|
A|-----------------------------------------------------------------|
E|-----------------------------------------------------------------|
   *   ^   *   ^   *   ^   *   ^   *   ^   *   ^   *   ^   *   ^ 

*2nd guitar kicks in*

  5:05  
1
e|-----------------------------------------------------------------|
B|-----------------------------------------------------------------|
G|-4b6r4~p~2---2~~~~~~~b~~~~~~~4---4b6r4~p~2---2~~~~~~~b~~~~~~~4---| 1
D|-----------------------------------------------------------------|
A|-----------------------------------------------------------------|
E|-----------------------------------------------------------------|
   *   ^   *   ^   *   ^   *   ^   *   ^   *   ^   *   ^   *   ^ 


2  
e|-----------------------------------------------------------------|
B|-5b7r5~p~2---5~~~~~~~b~~~~~~~7---5b7r5~p~2---5~~~~~~~b~~~~~~~7---|
G|-----------------------------------------------------------------| 2
D|-----------------------------------------------------------------|
A|-----------------------------------------------------------------|
E|-----------------------------------------------------------------|
   *   ^   *   ^   *   ^   *   ^   *   ^   *   ^   *   ^   *   ^ 



  5:08
1 
e|-----------------------------------------------------------------|
B|-----------------------------------------------------------------|
G|-4b6r4~p~2---2~~~~~~~b~~~~~~~4---4b6r4~p~2---2~~~~~~~b~~~~~~~4---| 1
D|-----------------------------------------------------------------|
A|-----------------------------------------------------------------|
E|-----------------------------------------------------------------|
   *   ^   *   ^   *   ^   *   ^   *   ^   *   ^   *   ^   *   ^ 

  
2
e|-----------------------------------------------------------------|
B|-5b7r5~p~2---5~~~~~~~b~~~~~~~7---5b7r5~p~2---5~~~~~~~b~~~~~~~7---|
G|-----------------------------------------------------------------| 2
D|-----------------------------------------------------------------|
A|-----------------------------------------------------------------|
E|-----------------------------------------------------------------|
   *   ^   *   ^   *   ^   *   ^   *   ^   *   ^   *   ^   *   ^ 



  5:11
1  
e|-----------------------------------------------------------------|
B|-5-------5-----------5---5-----------5---5-------5---5---5-------|
G|-----------------4/6-------------4/6-----------------------------| 1
D|-----------------------------------------------------------------|
A|-----------------------------------------------------------------|
E|-----------------------------------------------------------------|
   *   ^   *   ^   *   ^   *   ^   *   ^   *   ^   *   ^   *   ^ 


2 
e|-----------------------------------------------------------------|
B|-7---------------7-------------------5---5-----------5---5-------|
G|---------------------------------4/6-------------6---------------| 2
D|-----------------------------------------------------------------|
A|-----------------------------------------------------------------|
E|-----------------------------------------------------------------|
   *   ^   *   ^   *   ^   *   ^   *   ^   *   ^   *   ^   *   ^ 



  5:14
1
e|-5-----------7b9r7~p~5-------5-----------------------------------|
B|-------------------------7-------7-------7-------7-------5---7---|
G|-----------------------------------------------------------------| 1
D|-----------------------------------------------------------------|
A|-----------------------------------------------------------------|
E|-----------------------------------------------------------------|
   *   ^   *   ^   *   ^   *   ^   *   ^   *   ^   *   ^   *   ^ 


2
e|-----------------------------------------------------------------|
B|-7-----------7-----------7-----------5---------------------------|
G|-----------------------------------------6~\~4~p~2~h~4---2~h~4---| 2
D|-----------------------------------------------------------------|
A|-----------------------------------------------------------------|
E|-----------------------------------------------------------------|
   *   ^   *   ^   *   ^   *   ^   *   ^   *   ^   *   ^   *   ^ 




  5:17
1
e|-----------------------------------------------------------------|
B|-7b9r7~p~5---7~~~p~~~5-------5---7b9r7~p~5---7~~~p~~~5-------5---|
G|-------------------------6-------------------------------6-------| 1
D|-----------------------------------------------------------------|
A|-----------------------------------------------------------------|
E|-----------------------------------------------------------------|
   *   ^   *   ^   *   ^   *   ^   *   ^   *   ^   *   ^   *   ^ 


2
e|-----------------------------------------------------------------|
B|-7b9r7~p~5---7~~~p~~~5-------5---7b9r7~p~5---7~~~p~~~5-------5---|
G|-------------------------6-------------------------------6-------| 2
D|-----------------------------------------------------------------|
A|-----------------------------------------------------------------|
E|-----------------------------------------------------------------|
   *   ^   *   ^   *   ^   *   ^   *   ^   *   ^   *   ^   *   ^




1
e|-----------------------------------------------------------------|
B|-7~b~9~r~7~p~5---7~p~5---------------5---------------------------|
G|-------------------------6~\~4~/~6-------6~\~4~/~6---------------| 1
D|-----------------------------------------------------------------|
A|-----------------------------------------------------------------|
E|-----------------------------------------------------------------|
   *   ^   *   ^   *   ^   *   ^   *   ^   *   ^   *   ^   *   ^ 


2
e|-----------------------------------------------------------------|
B|-7~b~9~r~7~p~5---7~p~5---------------5---------------------------|
G|-------------------------6~\~4~/~6-------6~\~4~/~6---------------| 2
D|-----------------------------------------------------------------|
A|-----------------------------------------------------------------|
E|-----------------------------------------------------------------|
   *   ^   *   ^   *   ^   *   ^   *   ^   *   ^   *   ^   *   ^ 



  5:24
1
e|-----------------------------------------------------------------|
B|-5---------------------------------------------------------------|
G|-----6~\~4~p~2---4~p~2---------------2-------------------2-------| 1
D|-------------------------4~p~2---4-------4-----------------------|
A|-----------------------------------------------------------------|
E|-----------------------------------------------------------------|
   *   ^   *   ^   *   ^   *   ^   *   ^   *   ^   *   ^   *   ^ 


2
e|-----------------------------------------------------------------|
B|-----------------------------------------------------------------|
G|-----------------------------------------------------------------| 2
D|-6~~~~~/~4---2----4~p~2--------------2-------------------2-------|
A|-------------------------4---2---4-------4-----------------------|
E|-----------------------------------------------------------------|
   *   ^   *   ^   *   ^   *   ^   *   ^   *   ^   *   ^   *   ^ 




1
e|-----------------------------------------------------------------|
B|-5---------------------------------------------------------------|
G|-----6~\~4~p~2---4~p~2-----------4~~~~~~~~~~~~~b~6---------------| 1
D|-------------------------4~p~2-----------------------------------|
A|-----------------------------------------------------------------|
E|-----------------------------------------------------------------|
   *   ^   *   ^   *   ^   *   ^   *   ^   *   ^   *   ^   *   ^ 


2
e|-------------------------------------------------5-------5-------|
B|---------------------------------5-------5---7-------7-----------|
G|---------------------2---4~/~6-------6---------------------------| 2
D|-4/6~~~\~4~p~2---4-----------------------------------------------|
A|-----------------------------------------------------------------|
E|-----------------------------------------------------------------|
   *   ^   *   ^   *   ^   *   ^   *   ^   *   ^   *   ^   *   ^ 



  5:30
1
e|-7b9-----7b9-----7b9-----7b9-----7b9r7---5---7---5-----------5---|
B|---------------------------------------------------------7-------|
G|-----------------------------------------------------------------| 1
D|-----------------------------------------------------------------|
A|-----------------------------------------------------------------|
E|-----------------------------------------------------------------|
   *   ^   *   ^   *   ^   *   ^   *   ^   *   ^   *   ^   *   ^ 


2
e|-----------------------------------------------------------------|
B|-7b9-----7b9-----7b9-----7b9-----7b9r7---5---7---5-------5---7---|
G|-----------------------------------------------------------------| 2
D|-----------------------------------------------------------------|
A|-----------------------------------------------------------------|
E|-----------------------------------------------------------------|
   *   ^   *   ^   *   ^   *   ^   *   ^   *   ^   *   ^   *   ^ 




1
e|-7b9-----7b9-----7b9-----7b9-----7b9r7---5---7---5---------------|
B|---------------------------------------------------------7-------|
G|-----------------------------------------------------------------| 1
D|-----------------------------------------------------------------|
A|-----------------------------------------------------------------|
E|-----------------------------------------------------------------|
   *   ^   *   ^   *   ^   *   ^   *   ^   *   ^   *   ^   *   ^ 


2
e|-----------------------------------------------------------------|
B|-7b9-----7b9-----7b9-----7b9-----7b9r7---5---7-------------------|
G|-------------------------------------------------6v~~~~~~~-------| 2
D|-----------------------------------------------------------------|
A|-----------------------------------------------------------------|
E|-----------------------------------------------------------------|
   *   ^   *   ^   *   ^   *   ^   *   ^   *   ^   *   ^   *   ^ 



  5:36
1
e|---------5-------5---7~\~5---------------5---7~\~5---------------|
B|-5~h~7-------7---------------7---5~h~7---------------7---5~h~7---|
G|-----------------------------------------------------------------| 1
D|-----------------------------------------------------------------|
A|-----------------------------------------------------------------|
E|-----------------------------------------------------------------|
   *   ^   *   ^   *   ^   *   ^   *   ^   *   ^   *   ^   *   ^ 


2
e|-----------------------------------------------------------------|
B|-5~~~b~~~7-------pb5~r~~~5-------2---5---2h5-----2h5-----2h5-----|
G|-----------------------------------------------------------------| 2
D|-----------------------------------------------------------------|
A|-----------------------------------------------------------------|
E|-----------------------------------------------------------------|
   *   ^   *   ^   *   ^   *   ^   *   ^   *   ^   *   ^   *   ^ 




1
e|-5---7~\~5---------------5---7~\~5-------5---7---7~/~9---9---9---|
B|-------------7---5~h~7---------------7---------------------------|
G|-----------------------------------------------------------------| 1
D|-----------------------------------------------------------------|
A|-----------------------------------------------------------------|
E|-----------------------------------------------------------------|
   *   ^   *   ^   *   ^   *   ^   *   ^   *   ^   *   ^   *   ^


2
e|-----------------------------------------------------------------|
B|-2h5---2h5-2h5---2h5---2h5-2h5---2h5---2h5-2h5---2h5-------------|
G|-----------------------------------------------------------------| 2
D|-----------------------------------------------------------------|
A|-----------------------------------------------------------------|
E|-----------------------------------------------------------------|
   *   ^   *   ^   *   ^   *   ^   *   ^   *   ^   *   ^   *   ^ 



  5:42  Play 3 times
1
e|-7b9~~~~~r~~~~~7-----------------------------5-------------------|
B|-----------------7-------------------5~h~7-------7~p~5-------5---|
G|---------------------------------6-----------------------6-------| 1 & 2
D|-----------------------------------------------------------------| 
A|-----------------------------------------------------------------|
E|-----------------------------------------------------------------|
   *   ^   *   ^   *   ^   *   ^   *   ^   *   ^   *   ^   *   ^

  5:51
2
e|-----------------------------------------------------------------| 
B|-7b9r7~p~5---7b9r7~p~5---7b9r7~p~5---7b9r7~p~5---7b9~~~~~~~~~~~r~| 
G|-----------------------------------------------------------------| 1 & 2
D|-----------------------------------------------------------------|  
A|-----------------------------------------------------------------|
E|-----------------------------------------------------------------|
   *   ^   *   ^   *   ^   *   ^   *   ^   *   ^   *   ^   *   ^



  5:55

e|-----------------------------------------------------------------| 
B|~7-------------------------------5-------------------------------| 
G|-----------------------------------------------------------------| 1
D|-----------------------------------------------------------------|  
A|-----------------------------------------------------------------|
E|-----------------------------------------------------------------|
   *   ^   *   ^   *   ^   *   ^   *   ^   *   ^   *   ^   *   ^



e|-----------------------------------------------------------------| 
B|14~\12-----------------------------------------------------------| 
G|--------------------------------------------------------11--14---| 
D|-----------------------------------------------------------------|  
A|-----------------------------------------------------------------|
E|-----------------------------------------------------------------|
   *   ^   *   ^   *   ^   *   ^   *   ^   *   ^   *   ^   *   ^

  6:01
                                                          ! - youtube video shows placement further down
e|-----------------------------------------------------------------| 
B|-----------------------------------------------------------------| 
G|11---------------------------------------------------------------| 
D|------------------------------------------------------------12---|  
A|--------------------------------------------------------14-------|
E|-----------------------------------------------------------------|
   *   ^   *   ^   *   ^   *   ^   *   ^   *   ^   *   ^   *   ^



e|-----------------------------------------------------------------| 
B|-----------------------------------------------------------------| 
G|-----------------------------------------------------------------| 
D|14~~~~~~~~~~~~~~~~~~~~~/16------12-------------------------------|  
A|-----------------------------------------------------------------|
E|-----------------------------------------------------------------|
   *   ^   *   ^   *   ^   *   ^   *   ^   *   ^   *   ^   *   ^

  6:07

e|-----------------------------------------------------------------| 
B|15------------------------------14-------------------------------| 
G|-----------------------------------------------------------------| 
D|-----------------------------------------------------------------|  
A|-----------------------------------------------------------------|
E|-----------------------------------------------------------------|
   *   ^   *   ^   *   ^   *   ^   *   ^   *   ^   *   ^   *   ^



e|-----------------------------------------------------------------| 
B|14~\12-----------------------------------------------------------| 
G|--------------------------------------------------------11--14---| 
D|-----------------------------------------------------------------|  
A|-----------------------------------------------------------------|
E|-----------------------------------------------------------------|
   *   ^   *   ^   *   ^   *   ^   *   ^   *   ^   *   ^   *   ^

  6:13

e|-----------------------------------------------------------------| 
B|-----------------------------------------------------------------| 
G|11---------------------------------------------------------------| 
D|------------------------------------------------------------12---|  
A|--------------------------------------------------------14-------|
E|-----------------------------------------------------------------|
   *   ^   *   ^   *   ^   *   ^   *   ^   *   ^   *   ^   *   ^



e|-----------------------------------------------------------------| 
B|-----------------------------------------------------------------| 
G|-----------------------------------------------------------------| 
D|14~~~~~~~~~~~~~~~~~~~~~/16~~~\~~~9-------------------------------|  
A|-----------------------------------------------------------------|
E|-----------------------------------------------------------------|
   *   ^   *   ^   *   ^   *   ^   *   ^   *   ^   *   ^   *   ^



e|-----------------------------------------------------------------| 
B|-----------------------------------------------------------------| 
G|-----------------------------------------------------------------| 
D|-----------------------------------------------------------------|  
A|-----------------------------------------------------------------|
E|-----------------------------------------------------------------|
   *   *   *   *   *   *   *   *   *   *   *   *   *   *   *   *  

  6:26

e|---------------------------------2-------------------------------| 
B|---------------------------------2-------------------------------| 
G|---------------------------------2-------------------------------| 
D|-----------------------------------------------------------------|  
A|-----------------------------------------------------------------|
E|-----------------------------------------------------------------|
   *   *   *   *   *   *   *   *   *   *   *   *   *   *   *   * 

  6:33

e|---------------------------------2-------------------------------| 
B|---------------------------------2-------------------------------| 
G|---------------------------------2-------------------------------| 
D|-----------------------------------------------------------------|  
A|-----------------------------------------------------------------|
E|-----------------------------------------------------------------|
   *   *   *   *   *   *   *   *   *   *   *   *   *   *   *   * 
Suggest correction
Creating personal tab
Creating personal tab
You can edit any tab online and save it as your Personal.

You can edit, replace or remove any tab part or add personal notes – all changes will be seen only by you.

Personal tabs can be accessed anytime from any device, even offline.
Learn more »
Give kudos to tab author, rate the tab!
1 2 3 4 5
comments
print report bad tab
guest
You may want to rate the tab now too:
select rating
Wanna post a correction for this tab? Suggest correction