Oops, an error
Loading. Please wait.

Work Me tab

10,237 views 24 this week
3 commentsread comments
1 2 3 4 5
x 6
add to favorites
×
Save as Personal and add changes to this tab that will be seen only by you. Learn more ›
×
You can save this tab as Personal to edit and correct it or add notes. All changes will be seen only by you. Learn more »
launch autoscroll
font size
0
reset
how to read this tab
guitar tuner
edit
Autoscroll
slow
fast
+/-
esc
set tempo
stop
~~~~~~~~~~~~~~~~~~~~~~~~~~~~~~~~~~~~~~~~

Work Me
by: The Black Keys
Chulahoma: The Songs of Junior Kimbrough

~~~~~~~~~~~~~~~~~~~~~~~~~~~~~~~~~~~~~~~~

Tabbed by: Connor O.
Tuning: Down One Step aka D Standard Tuning (DGCFAD)

Comment or message any ideas or corrections. Please rate my tab. If you've got
problems with the tab, I'd encourage you to contact me with those problems so I
can fix the tab or provide advice for playing. Don't just give me a poor rating
and not give me any feedback. The idea is for us all to work together to create
a perfect finished product. This tab just represents the best I can do. It's 
definitely up for peer review.


[Intro]

0:00                                      

d|-----5555/3------------------0---------------|
A|-----5555/3--5-3/5-----1-3/5---5\3---1-------|
F|---------------------2-------------0---0h2---|
C|---------------------------------------------|
G|--0------------------------------------------|
D|---------------------------------------------|

[Verse 1]

0:08

d|---------------------------------------------------------|
A|-1h3p1---1h3---------1h3p1-----------1h3-1h3-1h3p1-------|
F|-------2---------0h2---------------------------------2---|
C|---------------------------------------------------------|
G|-0---0---0---0---0---0---0---0---0---0---0---0---0---0---|
D|---------------------------------------------------------|

d|--------------------------------------------------------------------------------|
A|-----1h3p1-------1h3p1---1h3---------1h3p1-----------1h3-1h3-1h3p1--------------|
F|-0h2-------------------2---------0h2---------------------------------2----------|
C|--------------------------------------------------------------------------------|
G|-0---0---0---0---0---0---0---0---0---0---0---0---0---0---0---0---0---0----------|
D|--------------------------------------------------------------------------------|

0:22

d|-3-----3-----3------------------------------------------------------------------|
A|---------------------3---------------1---------1-----1--------------1-----------|
F|-----------------------------0h2-----------2-----------2------------------2-----|
C|-0---0---0---0---0---0---0---0---0---0---0---0---0---0------0---0---0---0---0---|
G|---------------------------------------------------------3----------------------|
D|--------------------------------------------------------------------------------|

0:31

d|-3-----3-----3------------------------------|
A|---------------------3-/-5-------3---1------|
F|---------------------------------------2-0--|
C|-0---0---0---0---0---0---0---0---0---0------|
G|-----------------------------------------0--|
D|--------------------------------------------|

d|--------------------------------------------------------------------------------|
A|---------1h3p1-------1h3p1---1h3---------1h3p1-----------1h3-1h3-1h3p1----------|
F|-----0h2-------------------2---------0h2---------------------------------2------|
C|--------------------------------------------------------------------------------|
G|-0---0---0---0---0---0---0---0---0---0---0---0---0---0---0---0---0---0---0------|
D|--------------------------------------------------------------------------------|

  0:44                                                                         
  Baby you work me                                                       
d|-3-----3-----3------------------------------------------------------------------|
A|---------------------3---------------1---------1-----1--------------1-----------|
F|-----------------------------0h2-----------2-----------2------------------2-----|
C|-0---0---0---0---0---0---0---0---0---0---0---0---0---0------0---0---0---0---0---|
G|---------------------------------------------------------3----------------------|
D|--------------------------------------------------------------------------------|

  0:52
  Till I want no more
d|-3-----3-----3------------------------------|
A|---------------------3-/-5-------3-\-1------|
F|---------------------------------------2-0--|
C|-0---0---0---0---0---0---0---0---0---0------|
G|-----------------------------------------0--|
D|--------------------------------------------|


d|-------------------------------------------------------------------------------|
A|---------1h3p1-------1h3p1---1h3---------1h3p1-----------1h3-1h3-1h3p1---------|
F|-----0h2-------------------2---------0h2---------------------------------2-----|
C|-------------------------------------------------------------------------------|
G|-0---0---0---0---0---0---0---0---0---0---0---0---0---0---0---0---0---0---0-----|
D|-------------------------------------------------------------------------------|

  1:03
  Baby you work me                                                       
d|-3-----3-----3/5---------------------------------------------------------------|
A|---------------------3---------------1---------1-----1--------------1----------|
F|-----------------------------0h2-----------2-----------2------------------2----|
C|-0---0---0---0---0---0---0---0---0---0---0---0---0---0------0---0---0---0---0--|
G|---------------------------------------------------------3---------------------|
D|-------------------------------------------------------------------------------|

  1:12
  Till I want no more
d|-3-----3-----3------------------------------|
A|---------------------3-/-5-------3-\-1------|
F|---------------------------------------2-0--|
C|-0---0---0---0---0---0---0---0---0---0------|
G|-----------------------------------------0--|
D|--------------------------------------------|

  1:25
  Want you to work me baby
d|-------3-----3-----------------------------------------------------------------|
A|-3/5-------5-----5---3\1-------------1---------1-----1-------------------------|
F|---------------------------2---------------2-----------2-----------------------|
C|-0---0---0---0---0---0---0---0---0---0---0---0---0---0------0------------------|
G|---------------------------------------------------------3---------------------|
D|-------------------------------------------------------------------------------|

  1:31 
  Lord how you make me feel
d|-3/5---3------------------------|
A|-----------5-3---1---3--p0------|
F|---------------------------2----|
C|-0---0---0---0---0---0---0------|
G|-----------------------------0--|
D|--------------------------------|

d|-------------------------------------------------------------------------------|
A|---------1h3p1-------1h3p1---1h3---------1h3p1-----------1h3-1h3-1h3p1---------|
F|-----0h2-------------------2---------0h2---------------------------------2-----|
C|-------------------------------------------------------------------------------|
G|-0---0---0---0---0---0---0---0---0---0---0---0---0---0---0---0---0---0---0-----|
D|-------------------------------------------------------------------------------|

1:40
d|-------3-----3-----------------------------------------------------------------|
A|-3/5-------5-----5---3\1-------------1-----------1-----------------------------|
F|---------------------------2---------------2-----------2-----------------------|
C|-0---0---0---0---0---0---0---0---0---0---0---0---0---0------0------------------| 
G|---------------------------------------------------------3---------------------|
D|-------------------------------------------------------------------------------|


[Solo 1]

1:43                                           
d|-5-------------------3-----------------------------0-2---------------------0---|
A|-------------------5-------5\3-------------------------1-----------------------|
F|-------------------------------------------------------------------------------|
C|-0---0---0---0---0---0---0---0---0---0---0---0---0---0---0---0---0---0---0-----|
G|-------------------------------------------------------------------------------|
D|-------------------------------------------------------------------------------|

d|---2-----------------------------------------------------------------0---------|
A|-----1-----3~p~1-3-----------------------------------------------1h3-----------|
F|---------------------------------------------2---------------0h2---------------|
C|-0---0---0---0---0-------------------------------------------------------------|
G|---------------------0---0---0---0---0---0---0---0---0---0---0---0---0---0-----|
D|-------------------------------------------------------------------------------|

d|---------------------------------------------------------0-2-0-----------------|
A|-3p1---------------------1h3p1---1h3---------1---------------------------------|
F|-----2-------------------------2---------0h2-----------------------------------|
C|-------------------------------------------------------------------------------|
G|-0---0---0---0---0---0---0---0---0---0---0---0---0---0---0---0---0-------------|
D|-------------------------------------------------------------------------------|

d|-------------------8---8-----------------15--&-8---&-&-----8-------------------|
A|-8---8/10------&-----&---&---------------13--------------10--10~\8-------------|  &1, &2, &3 = 10
F|-----------------------------------------14------------------------------------|  &4 = 12\10
C|-0---0---0---0---0---0---0---0---0---0---0---0---0---0---0---0---0---0---------|  &5 = 10
G|-------------------------------------------------------------------------------|  &6 = 10/12
D|-------------------------------------------------------------------------------|

d|-----8-------------------------------------------------------------------------|
A|-8-&---&-8---------8-&-8-----------8-&-----------------------------------------|  &1, &2, &3, &4 = 10
F|-----------------9-------9-------9-----9-7-------5-7-5-7-5-----------7-5---7---|
C|-0---0---0---0---0---0---0---0---0---0---0---0---0---0---0---0---0---0---0-----|
G|-------------------------------------------------------------------------------|
D|-------------------------------------------------------------------------------|

d|-----------------------------------------------------------------0h2---------------|
A|-----------------------------------------------------------------------1~h~3~p~1---|
F|-5---7-5-7/9-5-------------------------------0---0h2-------------------------------|
C|-0---0---0---0---7-------------------------2---------------------------------------|
G|-----------------0---0---0---0---0---0---0---0---0---0---0---0---0---0---0---0---0-|
D|-----------------------------------------------------------------------------------|


[Verse 2]

  2:30                                             
  Won't you do me?                                  
d|-3-----3-----3/5---------------------------------------------------------------|
A|---------------------3---------------1---------1-----1--------------1----------|
F|-----------------------------0h2-----------2-----------2------------------2----|
C|-0---0---0---0---0---0---0---0---0---0---0---0---0---0------0---0---0---0---0--|
G|---------------------------------------------------------3---------------------|
D|-------------------------------------------------------------------------------|

  2:37
  Baby I will do you too                   
d|-3-------3-------------------------------|
A|-----------------5-------5----3-/-1------|
F|------------------------------------2-0--| 
C|-0---0---0---0---0---0---0----0---0------|
G|--------------------------------------0--|
D|-----------------------------------------|

d|--------------------------------------------------------------------------------|
A|---------1h3p1-------1h3p1---1h3---------1h3p1-----------1h3-1h3-1h3p1----------|
F|-----0h2-------------------2---------0h2---------------------------------2------|
C|--------------------------------------------------------------------------------|
G|-0---0---0---0---0---0---0---0---0---0---0---0---0---0---0---0---0---0---0------|
D|--------------------------------------------------------------------------------|(x2)

  2:57
  If you do me?                                  
d|-3-----3-----3/5----------------------------------------------------------------|
A|---------------------3---------------1---------1-----1--------------1-----------|
F|-----------------------------0h2-----------2-----------2------------------2-----|
C|-0---0---0---0---0---0---0---0---0---0---0---0---0---0------0---0---0---0---0---|
G|---------------------------------------------------------3----------------------|
D|--------------------------------------------------------------------------------|

  3:04
  Baby I will do you too
d|-3-------3-------------------------------|
A|-----------------5-------5----3-/-1------|
F|------------------------------------2-0--| 
C|-0---0---0---0---0---0---0----0---0------|
G|--------------------------------------0--|
D|-----------------------------------------|

d|---------------------------------------------------------------------------|
A|---------1h3p1-------1h3p1---1h3---------1h3p1-----------1h3-1h3-1h3p1-----|
F|-----0h2-------------------2---------0h2---------------------------------2-|
C|---------------------------------------------------------------------------|
G|-0---0---0---0---0---0---0---0---0---0---0---0---0---0---0---0---0---0---0-|
D|---------------------------------------------------------------------------|

  3:15
  Want you to work me baby
d|-------3-----3-------------------------------------------------------------|
A|-3/5-------5-----5---3\1-------------1---------1-----1---------------------|
F|---------------------------2---------------2-----------2-------------------|
C|-0---0---0---0---0---0---0---0---0---0---0---0---0---0------0--------------|
G|---------------------------------------------------------3-----------------|
D|---------------------------------------------------------------------------|

  3:21
  Lord how you make me feel
d|-3/5---3------------------------|
A|-----------5-3---1---3--p0------|
F|---------------------------2----|
C|-0---0---0---0---0---0---0------|
G|-----------------------------0--|
D|--------------------------------|

d|---------------------------------------------------------------------------|
A|---------1h3p1-------1h3p1---1h3---------1h3p1-----------1h3-1h3-1h3p1-----|
F|-----0h2-------------------2---------0h2---------------------------------2-|
C|---------------------------------------------------------------------------|
G|-0---0---0---0---0---0---0---0---0---0---0---0---0---0---0---0---0---0---0-|
D|---------------------------------------------------------------------------|

  3:30
d|---------------------------------------------------------------------------|
A|-----1h3p1-------1h3p1---1h3---------1h3p1-----------1h3-3/5-3---1---------|
F|-0h2-------------------2---------0h2---------------------------------------|
C|---------------------------------------------------------------------------|
G|-0---0---0---0---0---0---0---0---0---0---0---0---0---0---0---0---0---------|
D|---------------------------------------------------------------------------|

[Solo 2]

  3:36                                         
d|-------------------------------------------3-3-3-3-3-3/5-----------0-------|
A|-3-3-3-3-3-3-3-3-3-3/5-----------------------------------------------------|
F|---------------------------------------------------------------------------|
C|---------0---0---0---0---0---0---0---0---0---0---0---0---0---0---0---0-----|
G|-0---0---------------------------------------------------------------------|
D|---------------------------------------------------------------------------|




d|-----8-&-&~p~8---8-&-----8-&-8---------------------------------------------|
A|---&-----------&-----------------&---------------8-------------------------|  &1-&7 = 10
F|---------------------------------------------------9\7p5-7~~~~~~~/9-5------|
C|-0---0---0---0---0---0---0---0---------------------------------------------|
G|---------------------------------0---0---0---0---0---0---0---0---0---0---0-|
D|---------------------------------------------------------------------------|




d|-----0h2-------------------------------------------------------------------|
A|---------1---&-------------------------------------------------------------|  &1 = 1h3p1
F|-----------------2---2---------------------------0---0h2-------------------|
C|-----------------------------------------2---2-----------------------------|
G|-0---0---0---0---0---0---0---0---0---0---0---0---0---0---0---0---0---0---0-|
D|---------------------------------------------------------------------------|




d|-------------------------------------------------------------&-4---1--------------|
A|---------------------------------------------------------------3-----1h3p1--------|  &1 = 4/6
F|---------------------------------------------------------------3-------------0h2--|
C|---------------------------------------------------------------3------------------|
G|-0---0---0---0---0---0---0---0---0---0---0---0---0---0--(0)--0---0---0---0---0----|
D|----------------------------------------------------------------------------------|


************************************

| #h#  hammer
| #p#  pull
| / \  slides, up and down respectively.
| #b#  bend from normal note up to achieve bended note.
| #r#  release bend from bended note to normal note.
|  ~   Extend. Play a hammer or pull-off over a longer time period

| &   Substitution. Some symbols (like hammer ons and double-digit
      fret numbers) are too big to fit inbetween bass-line hits. 
      " & " is used to fit such symbols into the bass-line with out 
      having to increase the spacing of the bass-line. The 
      " & " symbol is used within the boxes and the symbol 
      it is substituting for is shown out side the box.

************************************

            
            
Suggest correction
Creating personal tab
Creating personal tab
You can edit any tab online and save it as your Personal.

You can edit, replace or remove any tab part or add personal notes – all changes will be seen only by you.

Personal tabs can be accessed anytime from any device, even offline.
Learn more »
comments
print report bad tab
3 comments total.
0 reply
coman91 1,531 Mar 31, 2013 12:48 PM

Update in the works as of 03/31/13. Hope to be done with it by the end of the week.

0 reply
e_wyatt 55 Apr 25, 2014 04:24 PM

This is great thanks.

guest
You may want to rate the tab now too:
select rating
Wanna post a correction for this tab? Suggest correction